  0
SECTION
  2
HEADER
  9
$ACADVER
  1
AC1004
  9
$INSBASE
 10
0.000000
 20
0.000000
  9
$EXTMIN
 10
0.000000
 20
0.000000
  9
$EXTMAX
 10
841.000000
 20
594.000000
  9
$LIMMIN
 10
0.000000
 20
0.000000
  9
$LIMMAX
 10
841.000000
 20
594.000000
  9
$VIEWCTR
 10
420.500000
 20
297.000000
  9
$VIEWSIZE
 40
594.000000
  9
$PEXTMIN
 10
0.000000
 20
0.000000
 30
0.000000
  9
$PEXTMAX
 10
841.000000
 20
594.000000
 30
0.000000
  9
$SNAPMODE
 70
     0
  9
$SNAPUNIT
 10
1.000000
 20
1.000000
  9
$SNAPBASE
 10
0.000000
 20
0.000000
  9
$SNAPANG
 50
0.000000
  9
$SNAPISOPAIR
 70
     0
  9
$SNAPSTYLE
 70
     0
  9
$GRIDMODE
 70
     0
  9
$GRIDUNIT
 10
0.000000
 20
0.000000
  9
$ORTHOMODE
 70
     0
  9
$REGENMODE
 70
     1
  9
$FILLMODE
 70
     1
  9
$QTEXTMODE
 70
     0
  9
$DRAGMODE
 70
     2
  9
$LTSCALE
 40
0.250000
  9
$OSMODE
 70
     0
  9
$ATTMODE
 70
     1
  9
$TEXTSIZE
 40
3.500000
  9
$TRACEWID
 40
0.050000
  9
$TEXTSTYLE
  7
STANDARD
  9
$CLAYER
  8
0
  9
$CELTYPE
  6
BYLAYER
  9
$CECOLOR
 62
   256
  9
$DIMSCALE
 40
1.000000
  9
$DIMASZ
 40
1.000000
  9
$DIMEXO
 40
0.000000
  9
$DIMDLI
 40
0.500000
  9
$DIMRND
 40
0.000000
  9
$DIMDLE
 40
0.000000
  9
$DIMEXE
 40
0.000000
  9
$DIMTP
 40
0.000000
  9
$DIMTM
 40
0.000000
  9
$DIMTXT
 40
3.500000
  9
$DIMCEN
 40
0.000000
  9
$DIMTSZ
 40
0.000000
  9
$DIMTOL
 70
     0
  9
$DIMLIM
 70
     0
  9
$DIMTIH
 70
     1
  9
$DIMTOH
 70
     1
  9
$DIMSE1
 70
     0
  9
$DIMSE2
 70
     0
  9
$DIMTAD
 70
     0
  9
$DIMZIN
 70
     0
  9
$DIMBLK
  1

  9
$DIMASO
 70
     0
  9
$DIMSHO
 70
     0
  9
$DIMPOST
  1

  9
$DIMAPOST
  1

  9
$DIMALT
 70
     0
  9
$DIMALTD
 70
     0
  9
$DIMALTF
 40
25.400000
  9
$DIMLFAC
 40
1.000000
  9
$DIMTOFL
 70
     0
  9
$DIMTVP
 40
0.000000
  9
$DIMTIX
 70
     0
  9
$DIMSOXD
 70
     0
  9
$DIMSAH
 70
     0
  9
$DIMBLKL
  1

  9
$DIMBLKR
  1

  9
$LUNITS
 70
     2
  9
$LUPREC
 70
     2
  9
$AXISMODE
 70
     0
  9
$AXISUNIT
 10
1.000000
 20
1.000000
  9
$SKETCHINC
 40
0.000000
  9
$FILLETRAD
 40
0.000000
  9
$AUNITS
 70
     1
  9
$AUPREC
 70
     2
  9
$MENU
  1
ACAD
  9
$ELEVATION
 40
0.000000
  9
$THICKNESS
 40
0.000000
  9
$VIEWDIR
 10
0.000000
 20
0.000000
 30
1.000000
  9
$LIMCHECK
 70
     1
  9
$BLIPMODE
 70
     1
  9
$CHAMFERA
 40
0.000000
  9
$CHAMFERB
 40
0.000000
  9
$FASTZOOM
 70
     1
  9
$SKPOLY
 70
     0
  9
$TDCREATE
 40
0.000000
  9
$TDUPDATE
 40
0.000000
  9
$TDINDWG
 40
0.000000
  9
$TDUSRTIMER
 40
0.000000
  9
$USRTIMER
 70
     1
  9
$ANGBASE
 50
0.000000
  9
$ANGDIR
 70
     0
  9
$PDMODE
 70
     0
  9
$PDSIZE
 40
0.000000
  9
$PLINEWID
 40
0.000000
  9
$COORDS
 70
     2
  9
$USERI1
 70
     0
  9
$USERI2
 70
     0
  9
$USERI3
 70
     0
  9
$USERI4
 70
     0
  9
$USERI5
 70
     0
  9
$USERR1
 40
0.000000
  9
$USERR2
 40
0.000000
  9
$USERR3
 40
0.000000
  9
$USERR4
 40
0.000000
  9
$USERR5
 40
0.000000
  0
ENDSEC
  0
SECTION
  2
TABLES
  0
TABLE
  2
LTYPE
 70
     5
  0
LTYPE
  2
CONTINUOUS
 70
    64
  3
Solid line
 72
    65
 73
     0
 40
0.0
  0
LTYPE
  2
HIDDEN
 70
    64
  3
------------------------
 72
    65
 73
     2
 40
12.6
 49
8.4
 49
-4.2
  0
LTYPE
  2
DOT
 70
    64
  3
････････････････････････
 72
    65
 73
     2
 40
8.0
 49
6.0
 49
-2.0
  0
LTYPE
  2
DASHDOT
 70
    64
  3
--･--･--･--･--･--･--･--
 72
    65
 73
     4
 40
50.5
 49
30.0
 49
-9.0
 49
2.5
 49
-9.0
  0
LTYPE
  2
DIVIDE
 70
    64
  3
--･･--･･--･･--･･--･･--
 72
    65
 73
     6
 40
58.0
 49
30.0
 49
-9.0
 49
2.5
 49
-5.0
 49
2.5
 49
-9.0
  0
LTYPE
  2
ACAD_ISO06W100
 70
    64
  3
____ ... ____ ... ____
 72
    65
 73
     8
 40
37.5
 49
24.0
 49
-3.0
 49
0.5
 49
-3.0
 49
0.5
 49
-3.0
 49
0.5
 49
-3.0
  0
LTYPE
  2
ACAD_ISO14W100
 70
    64
  3
__ . . . __ . . . __ . . . 
 72
    65
 73
     8
 40
25.5
 49
12.0
 49
-3.0
 49
0.5
 49
-3.0
 49
0.5
 49
-3.0
 49
0.5
 49
-3.0
  0
ENDTAB
  0
TABLE
  2
LAYER
 70
1
  0
LAYER
  2
1
 70
64
 62
7
  6
CONTINUOUS
  0
ENDTAB
  0
TABLE
  2
STYLE
 70
     2
  0
STYLE
  2
STANDARD
 70
    64
 40
0.0
 41
1.0
 50
0.0
 71
     0
 42
0.2
  3
TXT
  4

  0
STYLE
  2
KANJI
 70
    64
 40
0.0
 41
1.0
 50
0.0
 71
     0
 42
0.2
  3
TXT
  4
BIGFONT
  0
ENDTAB
  0
TABLE
  2
VIEW
 70
     0
  0
ENDTAB
  0
ENDSEC
  0
SECTION
  2
BLOCKS
  0
ENDSEC
  0
SECTION
  2
ENTITIES
  0
LINE
  8
1
 62
7
  6
DASHDOT
 10
430.000000
 20
305.000000
 11
410.000000
 21
305.000000
  0
LINE
  8
1
 62
7
  6
CONTINUOUS
 10
415.500000
 20
455.000000
 11
415.000000
 21
454.500000
  0
LINE
  8
1
 62
7
  6
CONTINUOUS
 10
424.500000
 20
455.000000
 11
415.500000
 21
455.000000
  0
LINE
  8
1
 62
7
  6
CONTINUOUS
 10
425.000000
 20
454.500000
 11
424.500000
 21
455.000000
  0
LINE
  8
1
 62
7
  6
CONTINUOUS
 10
415.000000
 20
454.500000
 11
415.000000
 21
155.500000
  0
LINE
  8
1
 62
7
  6
CONTINUOUS
 10
415.500000
 20
155.000000
 11
415.000000
 21
155.500000
  0
LINE
  8
1
 62
7
  6
CONTINUOUS
 10
425.000000
 20
155.500000
 11
425.000000
 21
454.500000
  0
LINE
  8
1
 62
7
  6
CONTINUOUS
 10
415.500000
 20
155.000000
 11
424.500000
 21
155.000000
  0
LINE
  8
1
 62
7
  6
CONTINUOUS
 10
425.000000
 20
155.500000
 11
424.500000
 21
155.000000
  0
LINE
  8
1
 62
7
  6
HIDDEN
 10
415.000000
 20
307.000000
 11
425.000000
 21
307.000000
  0
LINE
  8
1
 62
7
  6
HIDDEN
 10
425.000000
 20
303.000000
 11
415.000000
 21
303.000000
  0
LINE
  8
1
 62
7
  6
HIDDEN
 10
415.000000
 20
306.650000
 11
425.000000
 21
306.650000
  0
LINE
  8
1
 62
7
  6
HIDDEN
 10
425.000000
 20
303.350000
 11
415.000000
 21
303.350000
  0
LINE
  8
1
 62
7
  6
HIDDEN
 10
415.000000
 20
351.000000
 11
419.500000
 21
351.000000
  0
LINE
  8
1
 62
7
  6
HIDDEN
 10
419.500000
 20
352.750000
 11
425.000000
 21
352.750000
  0
LINE
  8
1
 62
7
  6
HIDDEN
 10
419.500000
 20
359.000000
 11
415.000000
 21
359.000000
  0
LINE
  8
1
 62
7
  6
HIDDEN
 10
425.000000
 20
357.250000
 11
419.500000
 21
357.250000
  0
LINE
  8
1
 62
7
  6
HIDDEN
 10
419.500000
 20
351.000000
 11
419.500000
 21
359.000000
  0
LINE
  8
1
 62
7
  6
DASHDOT
 10
413.000000
 20
355.000000
 11
427.000000
 21
355.000000
  0
LINE
  8
1
 62
7
  6
DASHDOT
 10
413.000000
 20
380.000000
 11
427.000000
 21
380.000000
  0
LINE
  8
1
 62
7
  6
HIDDEN
 10
415.000000
 20
382.000000
 11
425.000000
 21
382.000000
  0
LINE
  8
1
 62
7
  6
HIDDEN
 10
425.000000
 20
378.000000
 11
415.000000
 21
378.000000
  0
LINE
  8
1
 62
7
  6
HIDDEN
 10
415.000000
 20
381.650000
 11
425.000000
 21
381.650000
  0
LINE
  8
1
 62
7
  6
HIDDEN
 10
425.000000
 20
378.350000
 11
415.000000
 21
378.350000
  0
LINE
  8
1
 62
7
  6
DASHDOT
 10
413.000000
 20
405.000000
 11
427.000000
 21
405.000000
  0
LINE
  8
1
 62
7
  6
HIDDEN
 10
415.000000
 20
407.000000
 11
425.000000
 21
407.000000
  0
LINE
  8
1
 62
7
  6
HIDDEN
 10
425.000000
 20
403.000000
 11
415.000000
 21
403.000000
  0
LINE
  8
1
 62
7
  6
HIDDEN
 10
415.000000
 20
406.650000
 11
425.000000
 21
406.650000
  0
LINE
  8
1
 62
7
  6
HIDDEN
 10
425.000000
 20
403.350000
 11
415.000000
 21
403.350000
  0
LINE
  8
1
 62
7
  6
HIDDEN
 10
415.000000
 20
259.000000
 11
419.500000
 21
259.000000
  0
LINE
  8
1
 62
7
  6
HIDDEN
 10
419.500000
 20
257.250000
 11
425.000000
 21
257.250000
  0
LINE
  8
1
 62
7
  6
HIDDEN
 10
419.500000
 20
251.000000
 11
415.000000
 21
251.000000
  0
LINE
  8
1
 62
7
  6
HIDDEN
 10
425.000000
 20
252.750000
 11
419.500000
 21
252.750000
  0
LINE
  8
1
 62
7
  6
HIDDEN
 10
419.500000
 20
259.000000
 11
419.500000
 21
251.000000
  0
LINE
  8
1
 62
7
  6
DASHDOT
 10
413.000000
 20
255.000000
 11
427.000000
 21
255.000000
  0
LINE
  8
1
 62
7
  6
DASHDOT
 10
413.000000
 20
230.000000
 11
427.000000
 21
230.000000
  0
LINE
  8
1
 62
7
  6
HIDDEN
 10
415.000000
 20
228.000000
 11
425.000000
 21
228.000000
  0
LINE
  8
1
 62
7
  6
HIDDEN
 10
425.000000
 20
232.000000
 11
415.000000
 21
232.000000
  0
LINE
  8
1
 62
7
  6
HIDDEN
 10
415.000000
 20
228.350000
 11
425.000000
 21
228.350000
  0
LINE
  8
1
 62
7
  6
HIDDEN
 10
425.000000
 20
231.650000
 11
415.000000
 21
231.650000
  0
LINE
  8
1
 62
7
  6
DASHDOT
 10
413.000000
 20
205.000000
 11
427.000000
 21
205.000000
  0
LINE
  8
1
 62
7
  6
HIDDEN
 10
415.000000
 20
203.000000
 11
425.000000
 21
203.000000
  0
LINE
  8
1
 62
7
  6
HIDDEN
 10
425.000000
 20
207.000000
 11
415.000000
 21
207.000000
  0
LINE
  8
1
 62
7
  6
HIDDEN
 10
415.000000
 20
203.350000
 11
425.000000
 21
203.350000
  0
LINE
  8
1
 62
7
  6
HIDDEN
 10
425.000000
 20
206.650000
 11
415.000000
 21
206.650000
  0
LINE
  8
1
 62
7
  6
DASHDOT
 10
413.000000
 20
280.000000
 11
427.000000
 21
280.000000
  0
LINE
  8
1
 62
7
  6
HIDDEN
 10
415.000000
 20
278.000000
 11
425.000000
 21
278.000000
  0
LINE
  8
1
 62
7
  6
HIDDEN
 10
425.000000
 20
282.000000
 11
415.000000
 21
282.000000
  0
LINE
  8
1
 62
7
  6
HIDDEN
 10
415.000000
 20
278.350000
 11
425.000000
 21
278.350000
  0
LINE
  8
1
 62
7
  6
HIDDEN
 10
425.000000
 20
281.650000
 11
415.000000
 21
281.650000
  0
LINE
  8
1
 62
7
  6
DASHDOT
 10
413.000000
 20
330.000000
 11
427.000000
 21
330.000000
  0
LINE
  8
1
 62
7
  6
HIDDEN
 10
415.000000
 20
332.000000
 11
425.000000
 21
332.000000
  0
LINE
  8
1
 62
7
  6
HIDDEN
 10
425.000000
 20
328.000000
 11
415.000000
 21
328.000000
  0
LINE
  8
1
 62
7
  6
HIDDEN
 10
415.000000
 20
331.650000
 11
425.000000
 21
331.650000
  0
LINE
  8
1
 62
7
  6
HIDDEN
 10
425.000000
 20
328.350000
 11
415.000000
 21
328.350000
  0
LINE
  8
1
 62
7
  6
DASHDOT
 10
413.000000
 20
180.000000
 11
427.000000
 21
180.000000
  0
LINE
  8
1
 62
7
  6
HIDDEN
 10
415.000000
 20
178.000000
 11
425.000000
 21
178.000000
  0
LINE
  8
1
 62
7
  6
HIDDEN
 10
425.000000
 20
182.000000
 11
415.000000
 21
182.000000
  0
LINE
  8
1
 62
7
  6
HIDDEN
 10
415.000000
 20
178.350000
 11
425.000000
 21
178.350000
  0
LINE
  8
1
 62
7
  6
HIDDEN
 10
425.000000
 20
181.650000
 11
415.000000
 21
181.650000
  0
LINE
  8
1
 62
7
  6
DASHDOT
 10
413.000000
 20
430.000000
 11
427.000000
 21
430.000000
  0
LINE
  8
1
 62
7
  6
HIDDEN
 10
415.000000
 20
432.000000
 11
425.000000
 21
432.000000
  0
LINE
  8
1
 62
7
  6
HIDDEN
 10
425.000000
 20
428.000000
 11
415.000000
 21
428.000000
  0
LINE
  8
1
 62
7
  6
HIDDEN
 10
415.000000
 20
431.650000
 11
425.000000
 21
431.650000
  0
LINE
  8
1
 62
7
  6
HIDDEN
 10
425.000000
 20
428.350000
 11
415.000000
 21
428.350000
  0
LINE
  8
1
 62
7
  6
CONTINUOUS
 10
634.000000
 20
106.000000
 11
810.000000
 21
106.000000
  0
LINE
  8
1
 62
7
  6
CONTINUOUS
 10
634.000000
 20
106.000000
 11
634.000000
 21
34.000000
  0
LINE
  8
1
 62
7
  6
CONTINUOUS
 10
634.000000
 20
86.000000
 11
690.000000
 21
86.000000
  0
LINE
  8
1
 62
7
  6
CONTINUOUS
 10
634.000000
 20
58.000000
 11
810.000000
 21
58.000000
  0
TEXT
  8
1
 62
7
  6
CONTINUOUS
 10
771.000000
 20
39.000000
 40
6.000000
 41
1.000000
  1
1/1
  7
KANJI
 50
0.000000
 51
0.000000
  0
TEXT
  8
1
 62
7
  6
CONTINUOUS
 10
797.000000
 20
39.000000
 40
6.000000
 41
1.000000
  1
-
  7
KANJI
 50
0.000000
 51
0.000000
  0
TEXT
  8
1
 62
7
  6
CONTINUOUS
 10
659.000000
 20
39.000000
 40
6.000000
 41
0.401878
  1
－
  7
KANJI
 50
0.000000
 51
0.000000
  0
TEXT
  8
1
 62
7
  6
CONTINUOUS
 10
662.754497
 20
89.000000
 40
6.000000
 41
0.401878
  1
－
  7
KANJI
 50
0.000000
 51
0.000000
  0
LINE
  8
1
 62
7
  6
CONTINUOUS
 10
0.000000
 20
0.000000
 11
20.000000
 21
0.000000
  0
LINE
  8
1
 62
7
  6
CONTINUOUS
 10
0.000000
 20
0.000000
 11
0.000000
 21
20.000000
  0
LINE
  8
1
 62
7
  6
CONTINUOUS
 10
30.000000
 20
568.000000
 11
810.000000
 21
568.000000
  0
LINE
  8
1
 62
7
  6
CONTINUOUS
 10
30.000000
 20
34.000000
 11
810.000000
 21
34.000000
  0
LINE
  8
1
 62
7
  6
CONTINUOUS
 10
30.000000
 20
34.000000
 11
30.000000
 21
568.000000
  0
LINE
  8
1
 62
7
  6
CONTINUOUS
 10
30.000000
 20
34.000000
 11
178.000000
 21
34.000000
  0
LINE
  8
1
 62
7
  6
CONTINUOUS
 10
30.000000
 20
34.000000
 11
30.000000
 21
121.600000
  0
TEXT
  8
1
 62
7
  6
CONTINUOUS
 10
91.800000
 20
24.800000
 40
6.400000
 41
1.000000
  1
1
  7
KANJI
 50
0.000000
 51
0.000000
  0
LINE
  8
1
 62
7
  6
CONTINUOUS
 10
160.000000
 20
34.000000
 11
160.000000
 21
28.000000
  0
TEXT
  8
1
 62
7
  6
CONTINUOUS
 10
21.800000
 20
75.300000
 40
6.400000
 41
1.000000
  1
F
  7
KANJI
 50
0.000000
 51
0.000000
  0
LINE
  8
1
 62
7
  6
CONTINUOUS
 10
30.000000
 20
123.000000
 11
24.000000
 21
123.000000
  0
TEXT
  8
1
 62
7
  6
CONTINUOUS
 10
21.800000
 20
164.300000
 40
6.400000
 41
1.000000
  1
E
  7
KANJI
 50
0.000000
 51
0.000000
  0
LINE
  8
1
 62
7
  6
CONTINUOUS
 10
30.000000
 20
212.000000
 11
24.000000
 21
212.000000
  0
TEXT
  8
1
 62
7
  6
CONTINUOUS
 10
221.800000
 20
24.800000
 40
6.400000
 41
1.000000
  1
2
  7
KANJI
 50
0.000000
 51
0.000000
  0
LINE
  8
1
 62
7
  6
CONTINUOUS
 10
290.000000
 20
34.000000
 11
290.000000
 21
28.000000
  0
TEXT
  8
1
 62
7
  6
CONTINUOUS
 10
351.800000
 20
24.800000
 40
6.400000
 41
1.000000
  1
3
  7
KANJI
 50
0.000000
 51
0.000000
  0
TEXT
  8
1
 62
7
  6
CONTINUOUS
 10
21.800000
 20
431.300000
 40
6.400000
 41
1.000000
  1
B
  7
KANJI
 50
0.000000
 51
0.000000
  0
TEXT
  8
1
 62
7
  6
CONTINUOUS
 10
21.800000
 20
253.300000
 40
6.400000
 41
1.000000
  1
D
  7
KANJI
 50
0.000000
 51
0.000000
  0
LINE
  8
1
 62
7
  6
CONTINUOUS
 10
24.000000
 20
301.000000
 11
36.000000
 21
301.000000
  0
LINE
  8
1
 62
7
  6
CONTINUOUS
 10
36.000000
 20
301.000000
 11
24.000000
 21
301.000000
  0
TEXT
  8
1
 62
7
  6
CONTINUOUS
 10
21.800000
 20
342.300000
 40
6.400000
 41
1.000000
  1
C
  7
KANJI
 50
0.000000
 51
0.000000
  0
LINE
  8
1
 62
7
  6
CONTINUOUS
 10
30.000000
 20
390.000000
 11
24.000000
 21
390.000000
  0
LINE
  8
1
 62
7
  6
CONTINUOUS
 10
30.000000
 20
479.000000
 11
24.000000
 21
479.000000
  0
TEXT
  8
1
 62
7
  6
CONTINUOUS
 10
21.800000
 20
520.300000
 40
6.400000
 41
1.000000
  1
A
  7
KANJI
 50
0.000000
 51
0.000000
  0
TEXT
  8
1
 62
7
  6
CONTINUOUS
 10
91.800000
 20
570.800000
 40
6.400000
 41
1.000000
  1
1
  7
KANJI
 50
0.000000
 51
0.000000
  0
LINE
  8
1
 62
7
  6
CONTINUOUS
 10
160.000000
 20
568.000000
 11
160.000000
 21
574.000000
  0
TEXT
  8
1
 62
7
  6
CONTINUOUS
 10
221.800000
 20
570.800000
 40
6.400000
 41
1.000000
  1
2
  7
KANJI
 50
0.000000
 51
0.000000
  0
LINE
  8
1
 62
7
  6
CONTINUOUS
 10
290.000000
 20
568.000000
 11
290.000000
 21
574.000000
  0
TEXT
  8
1
 62
7
  6
CONTINUOUS
 10
351.800000
 20
570.800000
 40
6.400000
 41
1.000000
  1
3
  7
KANJI
 50
0.000000
 51
0.000000
  0
LINE
  8
1
 62
7
  6
CONTINUOUS
 10
420.000000
 20
562.000000
 11
420.000000
 21
574.000000
  0
LINE
  8
1
 62
7
  6
CONTINUOUS
 10
810.000000
 20
34.000000
 11
810.000000
 21
568.000000
  0
TEXT
  8
1
 62
7
  6
CONTINUOUS
 10
773.280000
 20
51.200000
 40
5.600000
 41
0.600000
  1
Page
  7
KANJI
 50
0.000000
 51
0.000000
  0
LINE
  8
1
 62
7
  6
CONTINUOUS
 10
634.000000
 20
50.000000
 11
810.000000
 21
50.000000
  0
LINE
  8
1
 62
7
  6
CONTINUOUS
 10
714.000000
 20
74.000000
 11
810.000000
 21
74.000000
  0
LINE
  8
1
 62
7
  6
CONTINUOUS
 10
690.000000
 20
90.000000
 11
810.000000
 21
90.000000
  0
LINE
  8
1
 62
7
  6
CONTINUOUS
 10
770.000000
 20
34.000000
 11
770.000000
 21
58.000000
  0
LINE
  8
1
 62
7
  6
CONTINUOUS
 10
690.000000
 20
34.000000
 11
690.000000
 21
106.000000
  0
TEXT
  8
1
 62
7
  6
CONTINUOUS
 10
481.800000
 20
24.800000
 40
6.400000
 41
1.000000
  1
4
  7
KANJI
 50
0.000000
 51
0.000000
  0
LINE
  8
1
 62
7
  6
CONTINUOUS
 10
550.000000
 20
34.000000
 11
550.000000
 21
28.000000
  0
TEXT
  8
1
 62
7
  6
CONTINUOUS
 10
611.800000
 20
24.800000
 40
6.400000
 41
1.000000
  1
5
  7
KANJI
 50
0.000000
 51
0.000000
  0
LINE
  8
1
 62
7
  6
CONTINUOUS
 10
680.000000
 20
34.000000
 11
680.000000
 21
28.000000
  0
TEXT
  8
1
 62
7
  6
CONTINUOUS
 10
741.800000
 20
24.800000
 40
6.400000
 41
1.000000
  1
6
  7
KANJI
 50
0.000000
 51
0.000000
  0
TEXT
  8
1
 62
7
  6
CONTINUOUS
 10
690.240000
 20
95.200000
 40
5.600000
 41
0.600000
  1
PRODUCT
  7
KANJI
 50
0.000000
 51
0.000000
  0
TEXT
  8
1
 62
7
  6
CONTINUOUS
 10
692.400000
 20
70.800000
 40
6.400000
 41
0.600000
  1
TITLE
  7
KANJI
 50
0.000000
 51
0.000000
  0
TEXT
  8
1
 62
7
  6
CONTINUOUS
 10
643.520000
 20
51.200000
 40
5.600000
 41
0.875214
  1
Product No.
  7
KANJI
 50
0.000000
 51
0.000000
  0
LINE
  8
1
 62
7
  6
DASHDOT
 10
644.000000
 20
69.000000
 11
660.000000
 21
69.000000
  0
CIRCLE
  8
1
 62
7
  6
CONTINUOUS
 10
652.000000
 20
69.000000
 40
4.000000
  0
CIRCLE
  8
1
 62
7
  6
CONTINUOUS
 10
652.000000
 20
69.000000
 40
6.000000
  0
LINE
  8
1
 62
7
  6
DASHDOT
 10
652.000000
 20
61.000000
 11
652.000000
 21
77.000000
  0
TEXT
  8
1
 62
7
  6
CONTINUOUS
 10
636.000000
 20
79.200000
 40
4.800000
 41
0.600000
  1
PROJECTION
  7
KANJI
 50
0.000000
 51
0.000000
  0
LINE
  8
1
 62
7
  6
CONTINUOUS
 10
668.000000
 20
65.000000
 11
668.000000
 21
73.000000
  0
LINE
  8
1
 62
7
  6
CONTINUOUS
 10
668.000000
 20
73.000000
 11
678.000000
 21
75.000000
  0
LINE
  8
1
 62
7
  6
DASHDOT
 10
666.000000
 20
69.000000
 11
680.000000
 21
69.000000
  0
LINE
  8
1
 62
7
  6
CONTINUOUS
 10
678.000000
 20
63.000000
 11
678.000000
 21
75.000000
  0
LINE
  8
1
 62
7
  6
CONTINUOUS
 10
668.000000
 20
65.000000
 11
678.000000
 21
63.000000
  0
TEXT
  8
1
 62
7
  6
CONTINUOUS
 10
636.000000
 20
99.200000
 40
4.800000
 41
0.600000
  1
QUANTITY
  7
KANJI
 50
0.000000
 51
0.000000
  0
LINE
  8
1
 62
7
  6
CONTINUOUS
 10
714.000000
 20
58.000000
 11
714.000000
 21
106.000000
  0
TEXT
  8
1
 62
7
  6
CONTINUOUS
 10
711.520000
 20
51.200000
 40
5.600000
 41
0.875214
  1
Drawing No.
  7
KANJI
 50
0.000000
 51
0.000000
  0
LINE
  8
1
 62
7
  6
CONTINUOUS
 10
790.000000
 20
34.000000
 11
790.000000
 21
58.000000
  0
TEXT
  8
1
 62
7
  6
CONTINUOUS
 10
811.800000
 20
75.300000
 40
6.400000
 41
1.000000
  1
F
  7
KANJI
 50
0.000000
 51
0.000000
  0
TEXT
  8
1
 62
7
  6
CONTINUOUS
 10
793.280000
 20
51.200000
 40
5.600000
 41
1.016107
  1
Rev.
  7
KANJI
 50
0.000000
 51
0.000000
  0
LINE
  8
1
 62
7
  6
CONTINUOUS
 10
810.000000
 20
123.000000
 11
816.000000
 21
123.000000
  0
TEXT
  8
1
 62
7
  6
CONTINUOUS
 10
811.800000
 20
164.300000
 40
6.400000
 41
1.000000
  1
E
  7
KANJI
 50
0.000000
 51
0.000000
  0
LINE
  8
1
 62
7
  6
CONTINUOUS
 10
810.000000
 20
212.000000
 11
816.000000
 21
212.000000
  0
TEXT
  8
1
 62
7
  6
CONTINUOUS
 10
481.800000
 20
570.800000
 40
6.400000
 41
1.000000
  1
4
  7
KANJI
 50
0.000000
 51
0.000000
  0
LINE
  8
1
 62
7
  6
CONTINUOUS
 10
550.000000
 20
568.000000
 11
550.000000
 21
574.000000
  0
TEXT
  8
1
 62
7
  6
CONTINUOUS
 10
611.800000
 20
570.800000
 40
6.400000
 41
1.000000
  1
5
  7
KANJI
 50
0.000000
 51
0.000000
  0
LINE
  8
1
 62
7
  6
CONTINUOUS
 10
680.000000
 20
568.000000
 11
680.000000
 21
574.000000
  0
TEXT
  8
1
 62
7
  6
CONTINUOUS
 10
741.800000
 20
570.800000
 40
6.400000
 41
1.000000
  1
6
  7
KANJI
 50
0.000000
 51
0.000000
  0
TEXT
  8
1
 62
7
  6
CONTINUOUS
 10
811.800000
 20
431.300000
 40
6.400000
 41
1.000000
  1
B
  7
KANJI
 50
0.000000
 51
0.000000
  0
TEXT
  8
1
 62
7
  6
CONTINUOUS
 10
811.800000
 20
253.300000
 40
6.400000
 41
1.000000
  1
D
  7
KANJI
 50
0.000000
 51
0.000000
  0
LINE
  8
1
 62
7
  6
CONTINUOUS
 10
804.000000
 20
301.000000
 11
816.000000
 21
301.000000
  0
TEXT
  8
1
 62
7
  6
CONTINUOUS
 10
811.800000
 20
342.300000
 40
6.400000
 41
1.000000
  1
C
  7
KANJI
 50
0.000000
 51
0.000000
  0
LINE
  8
1
 62
7
  6
CONTINUOUS
 10
810.000000
 20
390.000000
 11
816.000000
 21
390.000000
  0
LINE
  8
1
 62
7
  6
CONTINUOUS
 10
810.000000
 20
479.000000
 11
816.000000
 21
479.000000
  0
TEXT
  8
1
 62
7
  6
CONTINUOUS
 10
811.800000
 20
520.300000
 40
6.400000
 41
1.000000
  1
A
  7
KANJI
 50
0.000000
 51
0.000000
  0
LINE
  8
1
 62
7
  6
CONTINUOUS
 10
820.000000
 20
-0.065413
 11
840.000000
 21
-0.065413
  0
LINE
  8
1
 62
7
  6
CONTINUOUS
 10
840.000000
 20
-0.065413
 11
840.000000
 21
19.934587
  0
LINE
  8
1
 62
7
  6
CONTINUOUS
 10
0.000000
 20
594.000000
 11
20.000000
 21
594.000000
  0
LINE
  8
1
 62
7
  6
CONTINUOUS
 10
0.000000
 20
574.000000
 11
0.000000
 21
594.000000
  0
LINE
  8
1
 62
7
  6
CONTINUOUS
 10
820.000000
 20
594.000000
 11
840.000000
 21
594.000000
  0
LINE
  8
1
 62
7
  6
CONTINUOUS
 10
840.000000
 20
573.934587
 11
840.000000
 21
594.000000
  0
LINE
  8
1
 62
7
  6
DASHDOT
 10
620.186000
 20
460.000000
 11
620.186000
 21
150.000000
  0
LINE
  8
1
 62
7
  6
DASHDOT
 10
465.186000
 20
305.000000
 11
775.186000
 21
305.000000
  0
CIRCLE
  8
1
 62
7
  6
CONTINUOUS
 10
620.186000
 20
305.000000
 40
1.650000
  0
CIRCLE
  8
1
 62
7
  6
CONTINUOUS
 10
620.186000
 20
305.000000
 40
2.000000
  0
CIRCLE
  8
1
 62
7
  6
CONTINUOUS
 10
620.186000
 20
380.000000
 40
1.650000
  0
CIRCLE
  8
1
 62
7
  6
CONTINUOUS
 10
620.186000
 20
380.000000
 40
2.000000
  0
LINE
  8
1
 62
7
  6
DASHDOT
 10
624.186000
 20
380.000000
 11
616.186000
 21
380.000000
  0
CIRCLE
  8
1
 62
7
  6
CONTINUOUS
 10
620.186000
 20
355.000000
 40
1.650000
  0
CIRCLE
  8
1
 62
7
  6
CONTINUOUS
 10
620.186000
 20
355.000000
 40
2.000000
  0
LINE
  8
1
 62
7
  6
DASHDOT
 10
624.186000
 20
355.000000
 11
616.186000
 21
355.000000
  0
CIRCLE
  8
1
 62
7
  6
CONTINUOUS
 10
620.186000
 20
405.000000
 40
1.650000
  0
CIRCLE
  8
1
 62
7
  6
CONTINUOUS
 10
620.186000
 20
405.000000
 40
2.000000
  0
LINE
  8
1
 62
7
  6
DASHDOT
 10
624.186000
 20
405.000000
 11
616.186000
 21
405.000000
  0
CIRCLE
  8
1
 62
7
  6
CONTINUOUS
 10
620.186000
 20
230.000000
 40
1.650000
  0
CIRCLE
  8
1
 62
7
  6
CONTINUOUS
 10
620.186000
 20
230.000000
 40
2.000000
  0
LINE
  8
1
 62
7
  6
DASHDOT
 10
616.186000
 20
230.000000
 11
624.186000
 21
230.000000
  0
CIRCLE
  8
1
 62
7
  6
CONTINUOUS
 10
620.186000
 20
255.000000
 40
1.650000
  0
CIRCLE
  8
1
 62
7
  6
CONTINUOUS
 10
620.186000
 20
255.000000
 40
2.000000
  0
LINE
  8
1
 62
7
  6
DASHDOT
 10
616.186000
 20
255.000000
 11
624.186000
 21
255.000000
  0
CIRCLE
  8
1
 62
7
  6
CONTINUOUS
 10
620.186000
 20
205.000000
 40
1.650000
  0
CIRCLE
  8
1
 62
7
  6
CONTINUOUS
 10
620.186000
 20
205.000000
 40
2.000000
  0
LINE
  8
1
 62
7
  6
DASHDOT
 10
616.186000
 20
205.000000
 11
624.186000
 21
205.000000
  0
CIRCLE
  8
1
 62
7
  6
CONTINUOUS
 10
545.186000
 20
305.000000
 40
1.650000
  0
CIRCLE
  8
1
 62
7
  6
CONTINUOUS
 10
545.186000
 20
305.000000
 40
2.000000
  0
LINE
  8
1
 62
7
  6
DASHDOT
 10
545.186000
 20
309.000000
 11
545.186000
 21
301.000000
  0
CIRCLE
  8
1
 62
7
  6
CONTINUOUS
 10
570.186000
 20
305.000000
 40
1.650000
  0
CIRCLE
  8
1
 62
7
  6
CONTINUOUS
 10
570.186000
 20
305.000000
 40
2.000000
  0
LINE
  8
1
 62
7
  6
DASHDOT
 10
570.186000
 20
309.000000
 11
570.186000
 21
301.000000
  0
CIRCLE
  8
1
 62
7
  6
CONTINUOUS
 10
520.186000
 20
305.000000
 40
1.650000
  0
CIRCLE
  8
1
 62
7
  6
CONTINUOUS
 10
520.186000
 20
305.000000
 40
2.000000
  0
LINE
  8
1
 62
7
  6
DASHDOT
 10
520.186000
 20
309.000000
 11
520.186000
 21
301.000000
  0
CIRCLE
  8
1
 62
7
  6
CONTINUOUS
 10
570.186000
 20
355.000000
 40
2.250000
  0
LINE
  8
1
 62
7
  6
DASHDOT
 10
570.186000
 20
361.000000
 11
570.186000
 21
349.000000
  0
LINE
  8
1
 62
7
  6
DASHDOT
 10
576.186000
 20
355.000000
 11
564.186000
 21
355.000000
  0
CIRCLE
  8
1
 62
7
  6
CONTINUOUS
 10
570.186000
 20
380.000000
 40
1.650000
  0
CIRCLE
  8
1
 62
7
  6
CONTINUOUS
 10
570.186000
 20
380.000000
 40
2.000000
  0
LINE
  8
1
 62
7
  6
DASHDOT
 10
570.186000
 20
384.000000
 11
570.186000
 21
376.000000
  0
LINE
  8
1
 62
7
  6
DASHDOT
 10
574.186000
 20
380.000000
 11
566.186000
 21
380.000000
  0
CIRCLE
  8
1
 62
7
  6
CONTINUOUS
 10
545.186000
 20
380.000000
 40
1.650000
  0
CIRCLE
  8
1
 62
7
  6
CONTINUOUS
 10
545.186000
 20
380.000000
 40
2.000000
  0
LINE
  8
1
 62
7
  6
DASHDOT
 10
545.186000
 20
384.000000
 11
545.186000
 21
376.000000
  0
LINE
  8
1
 62
7
  6
DASHDOT
 10
549.186000
 20
380.000000
 11
541.186000
 21
380.000000
  0
CIRCLE
  8
1
 62
7
  6
CONTINUOUS
 10
545.186000
 20
355.000000
 40
1.650000
  0
CIRCLE
  8
1
 62
7
  6
CONTINUOUS
 10
545.186000
 20
355.000000
 40
2.000000
  0
LINE
  8
1
 62
7
  6
DASHDOT
 10
545.186000
 20
359.000000
 11
545.186000
 21
351.000000
  0
LINE
  8
1
 62
7
  6
DASHDOT
 10
549.186000
 20
355.000000
 11
541.186000
 21
355.000000
  0
CIRCLE
  8
1
 62
7
  6
CONTINUOUS
 10
570.186000
 20
405.000000
 40
1.650000
  0
CIRCLE
  8
1
 62
7
  6
CONTINUOUS
 10
570.186000
 20
405.000000
 40
2.000000
  0
LINE
  8
1
 62
7
  6
DASHDOT
 10
570.186000
 20
409.000000
 11
570.186000
 21
401.000000
  0
LINE
  8
1
 62
7
  6
DASHDOT
 10
574.186000
 20
405.000000
 11
566.186000
 21
405.000000
  0
CIRCLE
  8
1
 62
7
  6
CONTINUOUS
 10
545.186000
 20
405.000000
 40
1.650000
  0
CIRCLE
  8
1
 62
7
  6
CONTINUOUS
 10
545.186000
 20
405.000000
 40
2.000000
  0
LINE
  8
1
 62
7
  6
DASHDOT
 10
545.186000
 20
409.000000
 11
545.186000
 21
401.000000
  0
LINE
  8
1
 62
7
  6
DASHDOT
 10
549.186000
 20
405.000000
 11
541.186000
 21
405.000000
  0
CIRCLE
  8
1
 62
7
  6
CONTINUOUS
 10
520.186000
 20
380.000000
 40
1.650000
  0
CIRCLE
  8
1
 62
7
  6
CONTINUOUS
 10
520.186000
 20
380.000000
 40
2.000000
  0
LINE
  8
1
 62
7
  6
DASHDOT
 10
520.186000
 20
384.000000
 11
520.186000
 21
376.000000
  0
LINE
  8
1
 62
7
  6
DASHDOT
 10
524.186000
 20
380.000000
 11
516.186000
 21
380.000000
  0
CIRCLE
  8
1
 62
7
  6
CONTINUOUS
 10
520.186000
 20
355.000000
 40
1.650000
  0
CIRCLE
  8
1
 62
7
  6
CONTINUOUS
 10
520.186000
 20
355.000000
 40
2.000000
  0
LINE
  8
1
 62
7
  6
DASHDOT
 10
520.186000
 20
359.000000
 11
520.186000
 21
351.000000
  0
LINE
  8
1
 62
7
  6
DASHDOT
 10
524.186000
 20
355.000000
 11
516.186000
 21
355.000000
  0
CIRCLE
  8
1
 62
7
  6
CONTINUOUS
 10
520.186000
 20
405.000000
 40
1.650000
  0
CIRCLE
  8
1
 62
7
  6
CONTINUOUS
 10
520.186000
 20
405.000000
 40
2.000000
  0
LINE
  8
1
 62
7
  6
DASHDOT
 10
520.186000
 20
409.000000
 11
520.186000
 21
401.000000
  0
LINE
  8
1
 62
7
  6
DASHDOT
 10
524.186000
 20
405.000000
 11
516.186000
 21
405.000000
  0
CIRCLE
  8
1
 62
7
  6
CONTINUOUS
 10
570.186000
 20
255.000000
 40
2.250000
  0
LINE
  8
1
 62
7
  6
DASHDOT
 10
564.186000
 20
255.000000
 11
576.186000
 21
255.000000
  0
LINE
  8
1
 62
7
  6
DASHDOT
 10
570.186000
 20
261.000000
 11
570.186000
 21
249.000000
  0
CIRCLE
  8
1
 62
7
  6
CONTINUOUS
 10
545.186000
 20
255.000000
 40
1.650000
  0
CIRCLE
  8
1
 62
7
  6
CONTINUOUS
 10
545.186000
 20
255.000000
 40
2.000000
  0
LINE
  8
1
 62
7
  6
DASHDOT
 10
541.186000
 20
255.000000
 11
549.186000
 21
255.000000
  0
LINE
  8
1
 62
7
  6
DASHDOT
 10
545.186000
 20
259.000000
 11
545.186000
 21
251.000000
  0
CIRCLE
  8
1
 62
7
  6
CONTINUOUS
 10
545.186000
 20
230.000000
 40
1.650000
  0
CIRCLE
  8
1
 62
7
  6
CONTINUOUS
 10
545.186000
 20
230.000000
 40
2.000000
  0
LINE
  8
1
 62
7
  6
DASHDOT
 10
541.186000
 20
230.000000
 11
549.186000
 21
230.000000
  0
LINE
  8
1
 62
7
  6
DASHDOT
 10
545.186000
 20
234.000000
 11
545.186000
 21
226.000000
  0
CIRCLE
  8
1
 62
7
  6
CONTINUOUS
 10
570.186000
 20
230.000000
 40
1.650000
  0
CIRCLE
  8
1
 62
7
  6
CONTINUOUS
 10
570.186000
 20
230.000000
 40
2.000000
  0
LINE
  8
1
 62
7
  6
DASHDOT
 10
566.186000
 20
230.000000
 11
574.186000
 21
230.000000
  0
LINE
  8
1
 62
7
  6
DASHDOT
 10
570.186000
 20
234.000000
 11
570.186000
 21
226.000000
  0
CIRCLE
  8
1
 62
7
  6
CONTINUOUS
 10
545.186000
 20
205.000000
 40
1.650000
  0
CIRCLE
  8
1
 62
7
  6
CONTINUOUS
 10
545.186000
 20
205.000000
 40
2.000000
  0
LINE
  8
1
 62
7
  6
DASHDOT
 10
541.186000
 20
205.000000
 11
549.186000
 21
205.000000
  0
LINE
  8
1
 62
7
  6
DASHDOT
 10
545.186000
 20
209.000000
 11
545.186000
 21
201.000000
  0
CIRCLE
  8
1
 62
7
  6
CONTINUOUS
 10
570.186000
 20
205.000000
 40
1.650000
  0
CIRCLE
  8
1
 62
7
  6
CONTINUOUS
 10
570.186000
 20
205.000000
 40
2.000000
  0
LINE
  8
1
 62
7
  6
DASHDOT
 10
566.186000
 20
205.000000
 11
574.186000
 21
205.000000
  0
LINE
  8
1
 62
7
  6
DASHDOT
 10
570.186000
 20
209.000000
 11
570.186000
 21
201.000000
  0
CIRCLE
  8
1
 62
7
  6
CONTINUOUS
 10
520.186000
 20
255.000000
 40
1.650000
  0
CIRCLE
  8
1
 62
7
  6
CONTINUOUS
 10
520.186000
 20
255.000000
 40
2.000000
  0
LINE
  8
1
 62
7
  6
DASHDOT
 10
516.186000
 20
255.000000
 11
524.186000
 21
255.000000
  0
LINE
  8
1
 62
7
  6
DASHDOT
 10
520.186000
 20
259.000000
 11
520.186000
 21
251.000000
  0
CIRCLE
  8
1
 62
7
  6
CONTINUOUS
 10
520.186000
 20
230.000000
 40
1.650000
  0
CIRCLE
  8
1
 62
7
  6
CONTINUOUS
 10
520.186000
 20
230.000000
 40
2.000000
  0
LINE
  8
1
 62
7
  6
DASHDOT
 10
516.186000
 20
230.000000
 11
524.186000
 21
230.000000
  0
LINE
  8
1
 62
7
  6
DASHDOT
 10
520.186000
 20
234.000000
 11
520.186000
 21
226.000000
  0
CIRCLE
  8
1
 62
7
  6
CONTINUOUS
 10
520.186000
 20
205.000000
 40
1.650000
  0
CIRCLE
  8
1
 62
7
  6
CONTINUOUS
 10
520.186000
 20
205.000000
 40
2.000000
  0
LINE
  8
1
 62
7
  6
DASHDOT
 10
516.186000
 20
205.000000
 11
524.186000
 21
205.000000
  0
LINE
  8
1
 62
7
  6
DASHDOT
 10
520.186000
 20
209.000000
 11
520.186000
 21
201.000000
  0
CIRCLE
  8
1
 62
7
  6
CONTINUOUS
 10
695.186000
 20
305.000000
 40
1.650000
  0
CIRCLE
  8
1
 62
7
  6
CONTINUOUS
 10
695.186000
 20
305.000000
 40
2.000000
  0
LINE
  8
1
 62
7
  6
DASHDOT
 10
695.186000
 20
301.000000
 11
695.186000
 21
309.000000
  0
CIRCLE
  8
1
 62
7
  6
CONTINUOUS
 10
670.186000
 20
305.000000
 40
1.650000
  0
CIRCLE
  8
1
 62
7
  6
CONTINUOUS
 10
670.186000
 20
305.000000
 40
2.000000
  0
LINE
  8
1
 62
7
  6
DASHDOT
 10
670.186000
 20
301.000000
 11
670.186000
 21
309.000000
  0
CIRCLE
  8
1
 62
7
  6
CONTINUOUS
 10
720.186000
 20
305.000000
 40
1.650000
  0
CIRCLE
  8
1
 62
7
  6
CONTINUOUS
 10
720.186000
 20
305.000000
 40
2.000000
  0
LINE
  8
1
 62
7
  6
DASHDOT
 10
720.186000
 20
301.000000
 11
720.186000
 21
309.000000
  0
CIRCLE
  8
1
 62
7
  6
CONTINUOUS
 10
670.186000
 20
355.000000
 40
2.250000
  0
LINE
  8
1
 62
7
  6
DASHDOT
 10
676.186000
 20
355.000000
 11
664.186000
 21
355.000000
  0
LINE
  8
1
 62
7
  6
DASHDOT
 10
670.186000
 20
349.000000
 11
670.186000
 21
361.000000
  0
CIRCLE
  8
1
 62
7
  6
CONTINUOUS
 10
695.186000
 20
355.000000
 40
1.650000
  0
CIRCLE
  8
1
 62
7
  6
CONTINUOUS
 10
695.186000
 20
355.000000
 40
2.000000
  0
LINE
  8
1
 62
7
  6
DASHDOT
 10
699.186000
 20
355.000000
 11
691.186000
 21
355.000000
  0
LINE
  8
1
 62
7
  6
DASHDOT
 10
695.186000
 20
351.000000
 11
695.186000
 21
359.000000
  0
CIRCLE
  8
1
 62
7
  6
CONTINUOUS
 10
695.186000
 20
380.000000
 40
1.650000
  0
CIRCLE
  8
1
 62
7
  6
CONTINUOUS
 10
695.186000
 20
380.000000
 40
2.000000
  0
LINE
  8
1
 62
7
  6
DASHDOT
 10
699.186000
 20
380.000000
 11
691.186000
 21
380.000000
  0
LINE
  8
1
 62
7
  6
DASHDOT
 10
695.186000
 20
376.000000
 11
695.186000
 21
384.000000
  0
CIRCLE
  8
1
 62
7
  6
CONTINUOUS
 10
670.186000
 20
380.000000
 40
1.650000
  0
CIRCLE
  8
1
 62
7
  6
CONTINUOUS
 10
670.186000
 20
380.000000
 40
2.000000
  0
LINE
  8
1
 62
7
  6
DASHDOT
 10
674.186000
 20
380.000000
 11
666.186000
 21
380.000000
  0
LINE
  8
1
 62
7
  6
DASHDOT
 10
670.186000
 20
376.000000
 11
670.186000
 21
384.000000
  0
CIRCLE
  8
1
 62
7
  6
CONTINUOUS
 10
695.186000
 20
405.000000
 40
1.650000
  0
CIRCLE
  8
1
 62
7
  6
CONTINUOUS
 10
695.186000
 20
405.000000
 40
2.000000
  0
LINE
  8
1
 62
7
  6
DASHDOT
 10
699.186000
 20
405.000000
 11
691.186000
 21
405.000000
  0
LINE
  8
1
 62
7
  6
DASHDOT
 10
695.186000
 20
401.000000
 11
695.186000
 21
409.000000
  0
CIRCLE
  8
1
 62
7
  6
CONTINUOUS
 10
670.186000
 20
405.000000
 40
1.650000
  0
CIRCLE
  8
1
 62
7
  6
CONTINUOUS
 10
670.186000
 20
405.000000
 40
2.000000
  0
LINE
  8
1
 62
7
  6
DASHDOT
 10
674.186000
 20
405.000000
 11
666.186000
 21
405.000000
  0
LINE
  8
1
 62
7
  6
DASHDOT
 10
670.186000
 20
401.000000
 11
670.186000
 21
409.000000
  0
CIRCLE
  8
1
 62
7
  6
CONTINUOUS
 10
720.186000
 20
355.000000
 40
1.650000
  0
CIRCLE
  8
1
 62
7
  6
CONTINUOUS
 10
720.186000
 20
355.000000
 40
2.000000
  0
LINE
  8
1
 62
7
  6
DASHDOT
 10
724.186000
 20
355.000000
 11
716.186000
 21
355.000000
  0
LINE
  8
1
 62
7
  6
DASHDOT
 10
720.186000
 20
351.000000
 11
720.186000
 21
359.000000
  0
CIRCLE
  8
1
 62
7
  6
CONTINUOUS
 10
720.186000
 20
380.000000
 40
1.650000
  0
CIRCLE
  8
1
 62
7
  6
CONTINUOUS
 10
720.186000
 20
380.000000
 40
2.000000
  0
LINE
  8
1
 62
7
  6
DASHDOT
 10
724.186000
 20
380.000000
 11
716.186000
 21
380.000000
  0
LINE
  8
1
 62
7
  6
DASHDOT
 10
720.186000
 20
376.000000
 11
720.186000
 21
384.000000
  0
CIRCLE
  8
1
 62
7
  6
CONTINUOUS
 10
720.186000
 20
405.000000
 40
1.650000
  0
CIRCLE
  8
1
 62
7
  6
CONTINUOUS
 10
720.186000
 20
405.000000
 40
2.000000
  0
LINE
  8
1
 62
7
  6
DASHDOT
 10
724.186000
 20
405.000000
 11
716.186000
 21
405.000000
  0
LINE
  8
1
 62
7
  6
DASHDOT
 10
720.186000
 20
401.000000
 11
720.186000
 21
409.000000
  0
CIRCLE
  8
1
 62
7
  6
CONTINUOUS
 10
670.186000
 20
255.000000
 40
2.250000
  0
LINE
  8
1
 62
7
  6
DASHDOT
 10
670.186000
 20
249.000000
 11
670.186000
 21
261.000000
  0
LINE
  8
1
 62
7
  6
DASHDOT
 10
664.186000
 20
255.000000
 11
676.186000
 21
255.000000
  0
CIRCLE
  8
1
 62
7
  6
CONTINUOUS
 10
670.186000
 20
230.000000
 40
1.650000
  0
CIRCLE
  8
1
 62
7
  6
CONTINUOUS
 10
670.186000
 20
230.000000
 40
2.000000
  0
LINE
  8
1
 62
7
  6
DASHDOT
 10
670.186000
 20
226.000000
 11
670.186000
 21
234.000000
  0
LINE
  8
1
 62
7
  6
DASHDOT
 10
666.186000
 20
230.000000
 11
674.186000
 21
230.000000
  0
CIRCLE
  8
1
 62
7
  6
CONTINUOUS
 10
695.186000
 20
230.000000
 40
1.650000
  0
CIRCLE
  8
1
 62
7
  6
CONTINUOUS
 10
695.186000
 20
230.000000
 40
2.000000
  0
LINE
  8
1
 62
7
  6
DASHDOT
 10
695.186000
 20
226.000000
 11
695.186000
 21
234.000000
  0
LINE
  8
1
 62
7
  6
DASHDOT
 10
691.186000
 20
230.000000
 11
699.186000
 21
230.000000
  0
CIRCLE
  8
1
 62
7
  6
CONTINUOUS
 10
695.186000
 20
255.000000
 40
1.650000
  0
CIRCLE
  8
1
 62
7
  6
CONTINUOUS
 10
695.186000
 20
255.000000
 40
2.000000
  0
LINE
  8
1
 62
7
  6
DASHDOT
 10
695.186000
 20
251.000000
 11
695.186000
 21
259.000000
  0
LINE
  8
1
 62
7
  6
DASHDOT
 10
691.186000
 20
255.000000
 11
699.186000
 21
255.000000
  0
CIRCLE
  8
1
 62
7
  6
CONTINUOUS
 10
670.186000
 20
205.000000
 40
1.650000
  0
CIRCLE
  8
1
 62
7
  6
CONTINUOUS
 10
670.186000
 20
205.000000
 40
2.000000
  0
LINE
  8
1
 62
7
  6
DASHDOT
 10
670.186000
 20
201.000000
 11
670.186000
 21
209.000000
  0
LINE
  8
1
 62
7
  6
DASHDOT
 10
666.186000
 20
205.000000
 11
674.186000
 21
205.000000
  0
CIRCLE
  8
1
 62
7
  6
CONTINUOUS
 10
695.186000
 20
205.000000
 40
1.650000
  0
CIRCLE
  8
1
 62
7
  6
CONTINUOUS
 10
695.186000
 20
205.000000
 40
2.000000
  0
LINE
  8
1
 62
7
  6
DASHDOT
 10
695.186000
 20
201.000000
 11
695.186000
 21
209.000000
  0
LINE
  8
1
 62
7
  6
DASHDOT
 10
691.186000
 20
205.000000
 11
699.186000
 21
205.000000
  0
CIRCLE
  8
1
 62
7
  6
CONTINUOUS
 10
720.186000
 20
230.000000
 40
1.650000
  0
CIRCLE
  8
1
 62
7
  6
CONTINUOUS
 10
720.186000
 20
230.000000
 40
2.000000
  0
LINE
  8
1
 62
7
  6
DASHDOT
 10
720.186000
 20
226.000000
 11
720.186000
 21
234.000000
  0
LINE
  8
1
 62
7
  6
DASHDOT
 10
716.186000
 20
230.000000
 11
724.186000
 21
230.000000
  0
CIRCLE
  8
1
 62
7
  6
CONTINUOUS
 10
720.186000
 20
255.000000
 40
1.650000
  0
CIRCLE
  8
1
 62
7
  6
CONTINUOUS
 10
720.186000
 20
255.000000
 40
2.000000
  0
LINE
  8
1
 62
7
  6
DASHDOT
 10
720.186000
 20
251.000000
 11
720.186000
 21
259.000000
  0
LINE
  8
1
 62
7
  6
DASHDOT
 10
716.186000
 20
255.000000
 11
724.186000
 21
255.000000
  0
CIRCLE
  8
1
 62
7
  6
CONTINUOUS
 10
720.186000
 20
205.000000
 40
1.650000
  0
CIRCLE
  8
1
 62
7
  6
CONTINUOUS
 10
720.186000
 20
205.000000
 40
2.000000
  0
LINE
  8
1
 62
7
  6
DASHDOT
 10
720.186000
 20
201.000000
 11
720.186000
 21
209.000000
  0
LINE
  8
1
 62
7
  6
DASHDOT
 10
716.186000
 20
205.000000
 11
724.186000
 21
205.000000
  0
CIRCLE
  8
1
 62
7
  6
CONTINUOUS
 10
645.186000
 20
305.000000
 40
1.650000
  0
CIRCLE
  8
1
 62
7
  6
CONTINUOUS
 10
645.186000
 20
305.000000
 40
2.000000
  0
LINE
  8
1
 62
7
  6
DASHDOT
 10
645.186000
 20
301.000000
 11
645.186000
 21
309.000000
  0
CIRCLE
  8
1
 62
7
  6
CONTINUOUS
 10
645.186000
 20
355.000000
 40
1.650000
  0
CIRCLE
  8
1
 62
7
  6
CONTINUOUS
 10
645.186000
 20
355.000000
 40
2.000000
  0
LINE
  8
1
 62
7
  6
DASHDOT
 10
641.186000
 20
355.000000
 11
649.186000
 21
355.000000
  0
LINE
  8
1
 62
7
  6
DASHDOT
 10
645.186000
 20
351.000000
 11
645.186000
 21
359.000000
  0
CIRCLE
  8
1
 62
7
  6
CONTINUOUS
 10
645.186000
 20
380.000000
 40
1.650000
  0
CIRCLE
  8
1
 62
7
  6
CONTINUOUS
 10
645.186000
 20
380.000000
 40
2.000000
  0
LINE
  8
1
 62
7
  6
DASHDOT
 10
641.186000
 20
380.000000
 11
649.186000
 21
380.000000
  0
LINE
  8
1
 62
7
  6
DASHDOT
 10
645.186000
 20
376.000000
 11
645.186000
 21
384.000000
  0
CIRCLE
  8
1
 62
7
  6
CONTINUOUS
 10
645.186000
 20
405.000000
 40
1.650000
  0
CIRCLE
  8
1
 62
7
  6
CONTINUOUS
 10
645.186000
 20
405.000000
 40
2.000000
  0
LINE
  8
1
 62
7
  6
DASHDOT
 10
641.186000
 20
405.000000
 11
649.186000
 21
405.000000
  0
LINE
  8
1
 62
7
  6
DASHDOT
 10
645.186000
 20
401.000000
 11
645.186000
 21
409.000000
  0
CIRCLE
  8
1
 62
7
  6
CONTINUOUS
 10
645.186000
 20
230.000000
 40
1.650000
  0
CIRCLE
  8
1
 62
7
  6
CONTINUOUS
 10
645.186000
 20
230.000000
 40
2.000000
  0
LINE
  8
1
 62
7
  6
DASHDOT
 10
645.186000
 20
226.000000
 11
645.186000
 21
234.000000
  0
LINE
  8
1
 62
7
  6
DASHDOT
 10
649.186000
 20
230.000000
 11
641.186000
 21
230.000000
  0
CIRCLE
  8
1
 62
7
  6
CONTINUOUS
 10
645.186000
 20
255.000000
 40
1.650000
  0
CIRCLE
  8
1
 62
7
  6
CONTINUOUS
 10
645.186000
 20
255.000000
 40
2.000000
  0
LINE
  8
1
 62
7
  6
DASHDOT
 10
645.186000
 20
251.000000
 11
645.186000
 21
259.000000
  0
LINE
  8
1
 62
7
  6
DASHDOT
 10
649.186000
 20
255.000000
 11
641.186000
 21
255.000000
  0
CIRCLE
  8
1
 62
7
  6
CONTINUOUS
 10
645.186000
 20
205.000000
 40
1.650000
  0
CIRCLE
  8
1
 62
7
  6
CONTINUOUS
 10
645.186000
 20
205.000000
 40
2.000000
  0
LINE
  8
1
 62
7
  6
DASHDOT
 10
645.186000
 20
201.000000
 11
645.186000
 21
209.000000
  0
LINE
  8
1
 62
7
  6
DASHDOT
 10
649.186000
 20
205.000000
 11
641.186000
 21
205.000000
  0
CIRCLE
  8
1
 62
7
  6
CONTINUOUS
 10
595.186000
 20
305.000000
 40
1.650000
  0
CIRCLE
  8
1
 62
7
  6
CONTINUOUS
 10
595.186000
 20
305.000000
 40
2.000000
  0
LINE
  8
1
 62
7
  6
DASHDOT
 10
595.186000
 20
309.000000
 11
595.186000
 21
301.000000
  0
CIRCLE
  8
1
 62
7
  6
CONTINUOUS
 10
595.186000
 20
380.000000
 40
1.650000
  0
CIRCLE
  8
1
 62
7
  6
CONTINUOUS
 10
595.186000
 20
380.000000
 40
2.000000
  0
LINE
  8
1
 62
7
  6
DASHDOT
 10
595.186000
 20
384.000000
 11
595.186000
 21
376.000000
  0
LINE
  8
1
 62
7
  6
DASHDOT
 10
591.186000
 20
380.000000
 11
599.186000
 21
380.000000
  0
CIRCLE
  8
1
 62
7
  6
CONTINUOUS
 10
595.186000
 20
355.000000
 40
1.650000
  0
CIRCLE
  8
1
 62
7
  6
CONTINUOUS
 10
595.186000
 20
355.000000
 40
2.000000
  0
LINE
  8
1
 62
7
  6
DASHDOT
 10
595.186000
 20
359.000000
 11
595.186000
 21
351.000000
  0
LINE
  8
1
 62
7
  6
DASHDOT
 10
591.186000
 20
355.000000
 11
599.186000
 21
355.000000
  0
CIRCLE
  8
1
 62
7
  6
CONTINUOUS
 10
595.186000
 20
405.000000
 40
1.650000
  0
CIRCLE
  8
1
 62
7
  6
CONTINUOUS
 10
595.186000
 20
405.000000
 40
2.000000
  0
LINE
  8
1
 62
7
  6
DASHDOT
 10
595.186000
 20
409.000000
 11
595.186000
 21
401.000000
  0
LINE
  8
1
 62
7
  6
DASHDOT
 10
591.186000
 20
405.000000
 11
599.186000
 21
405.000000
  0
CIRCLE
  8
1
 62
7
  6
CONTINUOUS
 10
595.186000
 20
255.000000
 40
1.650000
  0
CIRCLE
  8
1
 62
7
  6
CONTINUOUS
 10
595.186000
 20
255.000000
 40
2.000000
  0
LINE
  8
1
 62
7
  6
DASHDOT
 10
599.186000
 20
255.000000
 11
591.186000
 21
255.000000
  0
LINE
  8
1
 62
7
  6
DASHDOT
 10
595.186000
 20
259.000000
 11
595.186000
 21
251.000000
  0
CIRCLE
  8
1
 62
7
  6
CONTINUOUS
 10
595.186000
 20
230.000000
 40
1.650000
  0
CIRCLE
  8
1
 62
7
  6
CONTINUOUS
 10
595.186000
 20
230.000000
 40
2.000000
  0
LINE
  8
1
 62
7
  6
DASHDOT
 10
599.186000
 20
230.000000
 11
591.186000
 21
230.000000
  0
LINE
  8
1
 62
7
  6
DASHDOT
 10
595.186000
 20
234.000000
 11
595.186000
 21
226.000000
  0
CIRCLE
  8
1
 62
7
  6
CONTINUOUS
 10
595.186000
 20
205.000000
 40
1.650000
  0
CIRCLE
  8
1
 62
7
  6
CONTINUOUS
 10
595.186000
 20
205.000000
 40
2.000000
  0
LINE
  8
1
 62
7
  6
DASHDOT
 10
599.186000
 20
205.000000
 11
591.186000
 21
205.000000
  0
LINE
  8
1
 62
7
  6
DASHDOT
 10
595.186000
 20
209.000000
 11
595.186000
 21
201.000000
  0
CIRCLE
  8
1
 62
7
  6
CONTINUOUS
 10
620.186000
 20
330.000000
 40
1.650000
  0
CIRCLE
  8
1
 62
7
  6
CONTINUOUS
 10
620.186000
 20
330.000000
 40
2.000000
  0
LINE
  8
1
 62
7
  6
DASHDOT
 10
624.186000
 20
330.000000
 11
616.186000
 21
330.000000
  0
CIRCLE
  8
1
 62
7
  6
CONTINUOUS
 10
570.186000
 20
330.000000
 40
1.650000
  0
CIRCLE
  8
1
 62
7
  6
CONTINUOUS
 10
570.186000
 20
330.000000
 40
2.000000
  0
LINE
  8
1
 62
7
  6
DASHDOT
 10
570.186000
 20
326.000000
 11
570.186000
 21
334.000000
  0
LINE
  8
1
 62
7
  6
DASHDOT
 10
574.186000
 20
330.000000
 11
566.186000
 21
330.000000
  0
CIRCLE
  8
1
 62
7
  6
CONTINUOUS
 10
545.186000
 20
330.000000
 40
1.650000
  0
CIRCLE
  8
1
 62
7
  6
CONTINUOUS
 10
545.186000
 20
330.000000
 40
2.000000
  0
LINE
  8
1
 62
7
  6
DASHDOT
 10
545.186000
 20
326.000000
 11
545.186000
 21
334.000000
  0
LINE
  8
1
 62
7
  6
DASHDOT
 10
549.186000
 20
330.000000
 11
541.186000
 21
330.000000
  0
CIRCLE
  8
1
 62
7
  6
CONTINUOUS
 10
520.186000
 20
330.000000
 40
1.650000
  0
CIRCLE
  8
1
 62
7
  6
CONTINUOUS
 10
520.186000
 20
330.000000
 40
2.000000
  0
LINE
  8
1
 62
7
  6
DASHDOT
 10
520.186000
 20
326.000000
 11
520.186000
 21
334.000000
  0
LINE
  8
1
 62
7
  6
DASHDOT
 10
524.186000
 20
330.000000
 11
516.186000
 21
330.000000
  0
CIRCLE
  8
1
 62
7
  6
CONTINUOUS
 10
695.186000
 20
330.000000
 40
1.650000
  0
CIRCLE
  8
1
 62
7
  6
CONTINUOUS
 10
695.186000
 20
330.000000
 40
2.000000
  0
LINE
  8
1
 62
7
  6
DASHDOT
 10
699.186000
 20
330.000000
 11
691.186000
 21
330.000000
  0
LINE
  8
1
 62
7
  6
DASHDOT
 10
695.186000
 20
334.000000
 11
695.186000
 21
326.000000
  0
CIRCLE
  8
1
 62
7
  6
CONTINUOUS
 10
670.186000
 20
330.000000
 40
1.650000
  0
CIRCLE
  8
1
 62
7
  6
CONTINUOUS
 10
670.186000
 20
330.000000
 40
2.000000
  0
LINE
  8
1
 62
7
  6
DASHDOT
 10
674.186000
 20
330.000000
 11
666.186000
 21
330.000000
  0
LINE
  8
1
 62
7
  6
DASHDOT
 10
670.186000
 20
334.000000
 11
670.186000
 21
326.000000
  0
CIRCLE
  8
1
 62
7
  6
CONTINUOUS
 10
720.186000
 20
330.000000
 40
1.650000
  0
CIRCLE
  8
1
 62
7
  6
CONTINUOUS
 10
720.186000
 20
330.000000
 40
2.000000
  0
LINE
  8
1
 62
7
  6
DASHDOT
 10
724.186000
 20
330.000000
 11
716.186000
 21
330.000000
  0
LINE
  8
1
 62
7
  6
DASHDOT
 10
720.186000
 20
334.000000
 11
720.186000
 21
326.000000
  0
CIRCLE
  8
1
 62
7
  6
CONTINUOUS
 10
645.186000
 20
330.000000
 40
1.650000
  0
CIRCLE
  8
1
 62
7
  6
CONTINUOUS
 10
645.186000
 20
330.000000
 40
2.000000
  0
LINE
  8
1
 62
7
  6
DASHDOT
 10
641.186000
 20
330.000000
 11
649.186000
 21
330.000000
  0
LINE
  8
1
 62
7
  6
DASHDOT
 10
645.186000
 20
334.000000
 11
645.186000
 21
326.000000
  0
CIRCLE
  8
1
 62
7
  6
CONTINUOUS
 10
595.186000
 20
330.000000
 40
1.650000
  0
CIRCLE
  8
1
 62
7
  6
CONTINUOUS
 10
595.186000
 20
330.000000
 40
2.000000
  0
LINE
  8
1
 62
7
  6
DASHDOT
 10
595.186000
 20
326.000000
 11
595.186000
 21
334.000000
  0
LINE
  8
1
 62
7
  6
DASHDOT
 10
591.186000
 20
330.000000
 11
599.186000
 21
330.000000
  0
CIRCLE
  8
1
 62
7
  6
CONTINUOUS
 10
620.186000
 20
280.000000
 40
1.650000
  0
CIRCLE
  8
1
 62
7
  6
CONTINUOUS
 10
620.186000
 20
280.000000
 40
2.000000
  0
LINE
  8
1
 62
7
  6
DASHDOT
 10
616.186000
 20
280.000000
 11
624.186000
 21
280.000000
  0
CIRCLE
  8
1
 62
7
  6
CONTINUOUS
 10
545.186000
 20
280.000000
 40
1.650000
  0
CIRCLE
  8
1
 62
7
  6
CONTINUOUS
 10
545.186000
 20
280.000000
 40
2.000000
  0
LINE
  8
1
 62
7
  6
DASHDOT
 10
541.186000
 20
280.000000
 11
549.186000
 21
280.000000
  0
LINE
  8
1
 62
7
  6
DASHDOT
 10
545.186000
 20
276.000000
 11
545.186000
 21
284.000000
  0
CIRCLE
  8
1
 62
7
  6
CONTINUOUS
 10
570.186000
 20
280.000000
 40
1.650000
  0
CIRCLE
  8
1
 62
7
  6
CONTINUOUS
 10
570.186000
 20
280.000000
 40
2.000000
  0
LINE
  8
1
 62
7
  6
DASHDOT
 10
566.186000
 20
280.000000
 11
574.186000
 21
280.000000
  0
LINE
  8
1
 62
7
  6
DASHDOT
 10
570.186000
 20
276.000000
 11
570.186000
 21
284.000000
  0
CIRCLE
  8
1
 62
7
  6
CONTINUOUS
 10
520.186000
 20
280.000000
 40
1.650000
  0
CIRCLE
  8
1
 62
7
  6
CONTINUOUS
 10
520.186000
 20
280.000000
 40
2.000000
  0
LINE
  8
1
 62
7
  6
DASHDOT
 10
516.186000
 20
280.000000
 11
524.186000
 21
280.000000
  0
LINE
  8
1
 62
7
  6
DASHDOT
 10
520.186000
 20
276.000000
 11
520.186000
 21
284.000000
  0
CIRCLE
  8
1
 62
7
  6
CONTINUOUS
 10
670.186000
 20
280.000000
 40
1.650000
  0
CIRCLE
  8
1
 62
7
  6
CONTINUOUS
 10
670.186000
 20
280.000000
 40
2.000000
  0
LINE
  8
1
 62
7
  6
DASHDOT
 10
670.186000
 20
284.000000
 11
670.186000
 21
276.000000
  0
LINE
  8
1
 62
7
  6
DASHDOT
 10
666.186000
 20
280.000000
 11
674.186000
 21
280.000000
  0
CIRCLE
  8
1
 62
7
  6
CONTINUOUS
 10
695.186000
 20
280.000000
 40
1.650000
  0
CIRCLE
  8
1
 62
7
  6
CONTINUOUS
 10
695.186000
 20
280.000000
 40
2.000000
  0
LINE
  8
1
 62
7
  6
DASHDOT
 10
695.186000
 20
284.000000
 11
695.186000
 21
276.000000
  0
LINE
  8
1
 62
7
  6
DASHDOT
 10
691.186000
 20
280.000000
 11
699.186000
 21
280.000000
  0
CIRCLE
  8
1
 62
7
  6
CONTINUOUS
 10
720.186000
 20
280.000000
 40
1.650000
  0
CIRCLE
  8
1
 62
7
  6
CONTINUOUS
 10
720.186000
 20
280.000000
 40
2.000000
  0
LINE
  8
1
 62
7
  6
DASHDOT
 10
720.186000
 20
284.000000
 11
720.186000
 21
276.000000
  0
LINE
  8
1
 62
7
  6
DASHDOT
 10
716.186000
 20
280.000000
 11
724.186000
 21
280.000000
  0
CIRCLE
  8
1
 62
7
  6
CONTINUOUS
 10
645.186000
 20
280.000000
 40
1.650000
  0
CIRCLE
  8
1
 62
7
  6
CONTINUOUS
 10
645.186000
 20
280.000000
 40
2.000000
  0
LINE
  8
1
 62
7
  6
DASHDOT
 10
645.186000
 20
284.000000
 11
645.186000
 21
276.000000
  0
LINE
  8
1
 62
7
  6
DASHDOT
 10
649.186000
 20
280.000000
 11
641.186000
 21
280.000000
  0
CIRCLE
  8
1
 62
7
  6
CONTINUOUS
 10
595.186000
 20
280.000000
 40
1.650000
  0
CIRCLE
  8
1
 62
7
  6
CONTINUOUS
 10
595.186000
 20
280.000000
 40
2.000000
  0
LINE
  8
1
 62
7
  6
DASHDOT
 10
599.186000
 20
280.000000
 11
591.186000
 21
280.000000
  0
LINE
  8
1
 62
7
  6
DASHDOT
 10
595.186000
 20
276.000000
 11
595.186000
 21
284.000000
  0
CIRCLE
  8
1
 62
7
  6
CONTINUOUS
 10
745.186000
 20
305.000000
 40
1.650000
  0
CIRCLE
  8
1
 62
7
  6
CONTINUOUS
 10
745.186000
 20
305.000000
 40
2.000000
  0
LINE
  8
1
 62
7
  6
DASHDOT
 10
745.186000
 20
301.000000
 11
745.186000
 21
309.000000
  0
CIRCLE
  8
1
 62
7
  6
CONTINUOUS
 10
745.186000
 20
355.000000
 40
1.650000
  0
CIRCLE
  8
1
 62
7
  6
CONTINUOUS
 10
745.186000
 20
355.000000
 40
2.000000
  0
LINE
  8
1
 62
7
  6
DASHDOT
 10
749.186000
 20
355.000000
 11
741.186000
 21
355.000000
  0
LINE
  8
1
 62
7
  6
DASHDOT
 10
745.186000
 20
351.000000
 11
745.186000
 21
359.000000
  0
CIRCLE
  8
1
 62
7
  6
CONTINUOUS
 10
745.186000
 20
380.000000
 40
1.650000
  0
CIRCLE
  8
1
 62
7
  6
CONTINUOUS
 10
745.186000
 20
380.000000
 40
2.000000
  0
LINE
  8
1
 62
7
  6
DASHDOT
 10
749.186000
 20
380.000000
 11
741.186000
 21
380.000000
  0
LINE
  8
1
 62
7
  6
DASHDOT
 10
745.186000
 20
376.000000
 11
745.186000
 21
384.000000
  0
CIRCLE
  8
1
 62
7
  6
CONTINUOUS
 10
745.186000
 20
405.000000
 40
1.650000
  0
CIRCLE
  8
1
 62
7
  6
CONTINUOUS
 10
745.186000
 20
405.000000
 40
2.000000
  0
LINE
  8
1
 62
7
  6
DASHDOT
 10
749.186000
 20
405.000000
 11
741.186000
 21
405.000000
  0
LINE
  8
1
 62
7
  6
DASHDOT
 10
745.186000
 20
401.000000
 11
745.186000
 21
409.000000
  0
CIRCLE
  8
1
 62
7
  6
CONTINUOUS
 10
745.186000
 20
230.000000
 40
1.650000
  0
CIRCLE
  8
1
 62
7
  6
CONTINUOUS
 10
745.186000
 20
230.000000
 40
2.000000
  0
LINE
  8
1
 62
7
  6
DASHDOT
 10
745.186000
 20
226.000000
 11
745.186000
 21
234.000000
  0
LINE
  8
1
 62
7
  6
DASHDOT
 10
741.186000
 20
230.000000
 11
749.186000
 21
230.000000
  0
CIRCLE
  8
1
 62
7
  6
CONTINUOUS
 10
745.186000
 20
255.000000
 40
1.650000
  0
CIRCLE
  8
1
 62
7
  6
CONTINUOUS
 10
745.186000
 20
255.000000
 40
2.000000
  0
LINE
  8
1
 62
7
  6
DASHDOT
 10
745.186000
 20
251.000000
 11
745.186000
 21
259.000000
  0
LINE
  8
1
 62
7
  6
DASHDOT
 10
741.186000
 20
255.000000
 11
749.186000
 21
255.000000
  0
CIRCLE
  8
1
 62
7
  6
CONTINUOUS
 10
745.186000
 20
205.000000
 40
1.650000
  0
CIRCLE
  8
1
 62
7
  6
CONTINUOUS
 10
745.186000
 20
205.000000
 40
2.000000
  0
LINE
  8
1
 62
7
  6
DASHDOT
 10
745.186000
 20
201.000000
 11
745.186000
 21
209.000000
  0
LINE
  8
1
 62
7
  6
DASHDOT
 10
741.186000
 20
205.000000
 11
749.186000
 21
205.000000
  0
CIRCLE
  8
1
 62
7
  6
CONTINUOUS
 10
745.186000
 20
330.000000
 40
1.650000
  0
CIRCLE
  8
1
 62
7
  6
CONTINUOUS
 10
745.186000
 20
330.000000
 40
2.000000
  0
LINE
  8
1
 62
7
  6
DASHDOT
 10
749.186000
 20
330.000000
 11
741.186000
 21
330.000000
  0
LINE
  8
1
 62
7
  6
DASHDOT
 10
745.186000
 20
334.000000
 11
745.186000
 21
326.000000
  0
CIRCLE
  8
1
 62
7
  6
CONTINUOUS
 10
745.186000
 20
280.000000
 40
1.650000
  0
CIRCLE
  8
1
 62
7
  6
CONTINUOUS
 10
745.186000
 20
280.000000
 40
2.000000
  0
LINE
  8
1
 62
7
  6
DASHDOT
 10
745.186000
 20
284.000000
 11
745.186000
 21
276.000000
  0
LINE
  8
1
 62
7
  6
DASHDOT
 10
741.186000
 20
280.000000
 11
749.186000
 21
280.000000
  0
CIRCLE
  8
1
 62
7
  6
CONTINUOUS
 10
495.186000
 20
305.000000
 40
1.650000
  0
CIRCLE
  8
1
 62
7
  6
CONTINUOUS
 10
495.186000
 20
305.000000
 40
2.000000
  0
LINE
  8
1
 62
7
  6
DASHDOT
 10
495.186000
 20
309.000000
 11
495.186000
 21
301.000000
  0
CIRCLE
  8
1
 62
7
  6
CONTINUOUS
 10
495.186000
 20
380.000000
 40
1.650000
  0
CIRCLE
  8
1
 62
7
  6
CONTINUOUS
 10
495.186000
 20
380.000000
 40
2.000000
  0
LINE
  8
1
 62
7
  6
DASHDOT
 10
495.186000
 20
384.000000
 11
495.186000
 21
376.000000
  0
LINE
  8
1
 62
7
  6
DASHDOT
 10
499.186000
 20
380.000000
 11
491.186000
 21
380.000000
  0
CIRCLE
  8
1
 62
7
  6
CONTINUOUS
 10
495.186000
 20
355.000000
 40
1.650000
  0
CIRCLE
  8
1
 62
7
  6
CONTINUOUS
 10
495.186000
 20
355.000000
 40
2.000000
  0
LINE
  8
1
 62
7
  6
DASHDOT
 10
495.186000
 20
359.000000
 11
495.186000
 21
351.000000
  0
LINE
  8
1
 62
7
  6
DASHDOT
 10
499.186000
 20
355.000000
 11
491.186000
 21
355.000000
  0
CIRCLE
  8
1
 62
7
  6
CONTINUOUS
 10
495.186000
 20
405.000000
 40
1.650000
  0
CIRCLE
  8
1
 62
7
  6
CONTINUOUS
 10
495.186000
 20
405.000000
 40
2.000000
  0
LINE
  8
1
 62
7
  6
DASHDOT
 10
495.186000
 20
409.000000
 11
495.186000
 21
401.000000
  0
LINE
  8
1
 62
7
  6
DASHDOT
 10
499.186000
 20
405.000000
 11
491.186000
 21
405.000000
  0
CIRCLE
  8
1
 62
7
  6
CONTINUOUS
 10
495.186000
 20
255.000000
 40
1.650000
  0
CIRCLE
  8
1
 62
7
  6
CONTINUOUS
 10
495.186000
 20
255.000000
 40
2.000000
  0
LINE
  8
1
 62
7
  6
DASHDOT
 10
491.186000
 20
255.000000
 11
499.186000
 21
255.000000
  0
LINE
  8
1
 62
7
  6
DASHDOT
 10
495.186000
 20
259.000000
 11
495.186000
 21
251.000000
  0
CIRCLE
  8
1
 62
7
  6
CONTINUOUS
 10
495.186000
 20
230.000000
 40
1.650000
  0
CIRCLE
  8
1
 62
7
  6
CONTINUOUS
 10
495.186000
 20
230.000000
 40
2.000000
  0
LINE
  8
1
 62
7
  6
DASHDOT
 10
491.186000
 20
230.000000
 11
499.186000
 21
230.000000
  0
LINE
  8
1
 62
7
  6
DASHDOT
 10
495.186000
 20
234.000000
 11
495.186000
 21
226.000000
  0
CIRCLE
  8
1
 62
7
  6
CONTINUOUS
 10
495.186000
 20
205.000000
 40
1.650000
  0
CIRCLE
  8
1
 62
7
  6
CONTINUOUS
 10
495.186000
 20
205.000000
 40
2.000000
  0
LINE
  8
1
 62
7
  6
DASHDOT
 10
491.186000
 20
205.000000
 11
499.186000
 21
205.000000
  0
LINE
  8
1
 62
7
  6
DASHDOT
 10
495.186000
 20
209.000000
 11
495.186000
 21
201.000000
  0
CIRCLE
  8
1
 62
7
  6
CONTINUOUS
 10
495.186000
 20
330.000000
 40
1.650000
  0
CIRCLE
  8
1
 62
7
  6
CONTINUOUS
 10
495.186000
 20
330.000000
 40
2.000000
  0
LINE
  8
1
 62
7
  6
DASHDOT
 10
495.186000
 20
326.000000
 11
495.186000
 21
334.000000
  0
LINE
  8
1
 62
7
  6
DASHDOT
 10
499.186000
 20
330.000000
 11
491.186000
 21
330.000000
  0
CIRCLE
  8
1
 62
7
  6
CONTINUOUS
 10
495.186000
 20
280.000000
 40
1.650000
  0
CIRCLE
  8
1
 62
7
  6
CONTINUOUS
 10
495.186000
 20
280.000000
 40
2.000000
  0
LINE
  8
1
 62
7
  6
DASHDOT
 10
491.186000
 20
280.000000
 11
499.186000
 21
280.000000
  0
LINE
  8
1
 62
7
  6
DASHDOT
 10
495.186000
 20
276.000000
 11
495.186000
 21
284.000000
  0
CIRCLE
  8
1
 62
7
  6
CONTINUOUS
 10
620.186000
 20
430.000000
 40
1.650000
  0
CIRCLE
  8
1
 62
7
  6
CONTINUOUS
 10
620.186000
 20
430.000000
 40
2.000000
  0
LINE
  8
1
 62
7
  6
DASHDOT
 10
624.186000
 20
430.000000
 11
616.186000
 21
430.000000
  0
CIRCLE
  8
1
 62
7
  6
CONTINUOUS
 10
570.186000
 20
430.000000
 40
1.650000
  0
CIRCLE
  8
1
 62
7
  6
CONTINUOUS
 10
570.186000
 20
430.000000
 40
2.000000
  0
LINE
  8
1
 62
7
  6
DASHDOT
 10
570.186000
 20
434.000000
 11
570.186000
 21
426.000000
  0
LINE
  8
1
 62
7
  6
DASHDOT
 10
574.186000
 20
430.000000
 11
566.186000
 21
430.000000
  0
CIRCLE
  8
1
 62
7
  6
CONTINUOUS
 10
545.186000
 20
430.000000
 40
1.650000
  0
CIRCLE
  8
1
 62
7
  6
CONTINUOUS
 10
545.186000
 20
430.000000
 40
2.000000
  0
LINE
  8
1
 62
7
  6
DASHDOT
 10
545.186000
 20
434.000000
 11
545.186000
 21
426.000000
  0
LINE
  8
1
 62
7
  6
DASHDOT
 10
549.186000
 20
430.000000
 11
541.186000
 21
430.000000
  0
CIRCLE
  8
1
 62
7
  6
CONTINUOUS
 10
520.186000
 20
430.000000
 40
1.650000
  0
CIRCLE
  8
1
 62
7
  6
CONTINUOUS
 10
520.186000
 20
430.000000
 40
2.000000
  0
LINE
  8
1
 62
7
  6
DASHDOT
 10
520.186000
 20
434.000000
 11
520.186000
 21
426.000000
  0
LINE
  8
1
 62
7
  6
DASHDOT
 10
524.186000
 20
430.000000
 11
516.186000
 21
430.000000
  0
CIRCLE
  8
1
 62
7
  6
CONTINUOUS
 10
695.186000
 20
430.000000
 40
1.650000
  0
CIRCLE
  8
1
 62
7
  6
CONTINUOUS
 10
695.186000
 20
430.000000
 40
2.000000
  0
LINE
  8
1
 62
7
  6
DASHDOT
 10
699.186000
 20
430.000000
 11
691.186000
 21
430.000000
  0
LINE
  8
1
 62
7
  6
DASHDOT
 10
695.186000
 20
426.000000
 11
695.186000
 21
434.000000
  0
CIRCLE
  8
1
 62
7
  6
CONTINUOUS
 10
670.186000
 20
430.000000
 40
1.650000
  0
CIRCLE
  8
1
 62
7
  6
CONTINUOUS
 10
670.186000
 20
430.000000
 40
2.000000
  0
LINE
  8
1
 62
7
  6
DASHDOT
 10
674.186000
 20
430.000000
 11
666.186000
 21
430.000000
  0
LINE
  8
1
 62
7
  6
DASHDOT
 10
670.186000
 20
426.000000
 11
670.186000
 21
434.000000
  0
CIRCLE
  8
1
 62
7
  6
CONTINUOUS
 10
720.186000
 20
430.000000
 40
1.650000
  0
CIRCLE
  8
1
 62
7
  6
CONTINUOUS
 10
720.186000
 20
430.000000
 40
2.000000
  0
LINE
  8
1
 62
7
  6
DASHDOT
 10
724.186000
 20
430.000000
 11
716.186000
 21
430.000000
  0
LINE
  8
1
 62
7
  6
DASHDOT
 10
720.186000
 20
426.000000
 11
720.186000
 21
434.000000
  0
CIRCLE
  8
1
 62
7
  6
CONTINUOUS
 10
645.186000
 20
430.000000
 40
1.650000
  0
CIRCLE
  8
1
 62
7
  6
CONTINUOUS
 10
645.186000
 20
430.000000
 40
2.000000
  0
LINE
  8
1
 62
7
  6
DASHDOT
 10
641.186000
 20
430.000000
 11
649.186000
 21
430.000000
  0
LINE
  8
1
 62
7
  6
DASHDOT
 10
645.186000
 20
426.000000
 11
645.186000
 21
434.000000
  0
CIRCLE
  8
1
 62
7
  6
CONTINUOUS
 10
595.186000
 20
430.000000
 40
1.650000
  0
CIRCLE
  8
1
 62
7
  6
CONTINUOUS
 10
595.186000
 20
430.000000
 40
2.000000
  0
LINE
  8
1
 62
7
  6
DASHDOT
 10
595.186000
 20
434.000000
 11
595.186000
 21
426.000000
  0
LINE
  8
1
 62
7
  6
DASHDOT
 10
591.186000
 20
430.000000
 11
599.186000
 21
430.000000
  0
CIRCLE
  8
1
 62
7
  6
CONTINUOUS
 10
745.186000
 20
430.000000
 40
1.650000
  0
CIRCLE
  8
1
 62
7
  6
CONTINUOUS
 10
745.186000
 20
430.000000
 40
2.000000
  0
LINE
  8
1
 62
7
  6
DASHDOT
 10
749.186000
 20
430.000000
 11
741.186000
 21
430.000000
  0
LINE
  8
1
 62
7
  6
DASHDOT
 10
745.186000
 20
426.000000
 11
745.186000
 21
434.000000
  0
CIRCLE
  8
1
 62
7
  6
CONTINUOUS
 10
495.186000
 20
430.000000
 40
1.650000
  0
CIRCLE
  8
1
 62
7
  6
CONTINUOUS
 10
495.186000
 20
430.000000
 40
2.000000
  0
LINE
  8
1
 62
7
  6
DASHDOT
 10
495.186000
 20
434.000000
 11
495.186000
 21
426.000000
  0
LINE
  8
1
 62
7
  6
DASHDOT
 10
499.186000
 20
430.000000
 11
491.186000
 21
430.000000
  0
CIRCLE
  8
1
 62
7
  6
CONTINUOUS
 10
620.186000
 20
180.000000
 40
1.650000
  0
CIRCLE
  8
1
 62
7
  6
CONTINUOUS
 10
620.186000
 20
180.000000
 40
2.000000
  0
LINE
  8
1
 62
7
  6
DASHDOT
 10
616.186000
 20
180.000000
 11
624.186000
 21
180.000000
  0
CIRCLE
  8
1
 62
7
  6
CONTINUOUS
 10
545.186000
 20
180.000000
 40
1.650000
  0
CIRCLE
  8
1
 62
7
  6
CONTINUOUS
 10
545.186000
 20
180.000000
 40
2.000000
  0
LINE
  8
1
 62
7
  6
DASHDOT
 10
541.186000
 20
180.000000
 11
549.186000
 21
180.000000
  0
LINE
  8
1
 62
7
  6
DASHDOT
 10
545.186000
 20
184.000000
 11
545.186000
 21
176.000000
  0
CIRCLE
  8
1
 62
7
  6
CONTINUOUS
 10
570.186000
 20
180.000000
 40
1.650000
  0
CIRCLE
  8
1
 62
7
  6
CONTINUOUS
 10
570.186000
 20
180.000000
 40
2.000000
  0
LINE
  8
1
 62
7
  6
DASHDOT
 10
566.186000
 20
180.000000
 11
574.186000
 21
180.000000
  0
LINE
  8
1
 62
7
  6
DASHDOT
 10
570.186000
 20
184.000000
 11
570.186000
 21
176.000000
  0
CIRCLE
  8
1
 62
7
  6
CONTINUOUS
 10
520.186000
 20
180.000000
 40
1.650000
  0
CIRCLE
  8
1
 62
7
  6
CONTINUOUS
 10
520.186000
 20
180.000000
 40
2.000000
  0
LINE
  8
1
 62
7
  6
DASHDOT
 10
516.186000
 20
180.000000
 11
524.186000
 21
180.000000
  0
LINE
  8
1
 62
7
  6
DASHDOT
 10
520.186000
 20
184.000000
 11
520.186000
 21
176.000000
  0
CIRCLE
  8
1
 62
7
  6
CONTINUOUS
 10
670.186000
 20
180.000000
 40
1.650000
  0
CIRCLE
  8
1
 62
7
  6
CONTINUOUS
 10
670.186000
 20
180.000000
 40
2.000000
  0
LINE
  8
1
 62
7
  6
DASHDOT
 10
670.186000
 20
176.000000
 11
670.186000
 21
184.000000
  0
LINE
  8
1
 62
7
  6
DASHDOT
 10
666.186000
 20
180.000000
 11
674.186000
 21
180.000000
  0
CIRCLE
  8
1
 62
7
  6
CONTINUOUS
 10
695.186000
 20
180.000000
 40
1.650000
  0
CIRCLE
  8
1
 62
7
  6
CONTINUOUS
 10
695.186000
 20
180.000000
 40
2.000000
  0
LINE
  8
1
 62
7
  6
DASHDOT
 10
695.186000
 20
176.000000
 11
695.186000
 21
184.000000
  0
LINE
  8
1
 62
7
  6
DASHDOT
 10
691.186000
 20
180.000000
 11
699.186000
 21
180.000000
  0
CIRCLE
  8
1
 62
7
  6
CONTINUOUS
 10
720.186000
 20
180.000000
 40
1.650000
  0
CIRCLE
  8
1
 62
7
  6
CONTINUOUS
 10
720.186000
 20
180.000000
 40
2.000000
  0
LINE
  8
1
 62
7
  6
DASHDOT
 10
720.186000
 20
176.000000
 11
720.186000
 21
184.000000
  0
LINE
  8
1
 62
7
  6
DASHDOT
 10
716.186000
 20
180.000000
 11
724.186000
 21
180.000000
  0
CIRCLE
  8
1
 62
7
  6
CONTINUOUS
 10
645.186000
 20
180.000000
 40
1.650000
  0
CIRCLE
  8
1
 62
7
  6
CONTINUOUS
 10
645.186000
 20
180.000000
 40
2.000000
  0
LINE
  8
1
 62
7
  6
DASHDOT
 10
645.186000
 20
176.000000
 11
645.186000
 21
184.000000
  0
LINE
  8
1
 62
7
  6
DASHDOT
 10
649.186000
 20
180.000000
 11
641.186000
 21
180.000000
  0
CIRCLE
  8
1
 62
7
  6
CONTINUOUS
 10
595.186000
 20
180.000000
 40
1.650000
  0
CIRCLE
  8
1
 62
7
  6
CONTINUOUS
 10
595.186000
 20
180.000000
 40
2.000000
  0
LINE
  8
1
 62
7
  6
DASHDOT
 10
599.186000
 20
180.000000
 11
591.186000
 21
180.000000
  0
LINE
  8
1
 62
7
  6
DASHDOT
 10
595.186000
 20
184.000000
 11
595.186000
 21
176.000000
  0
CIRCLE
  8
1
 62
7
  6
CONTINUOUS
 10
745.186000
 20
180.000000
 40
1.650000
  0
CIRCLE
  8
1
 62
7
  6
CONTINUOUS
 10
745.186000
 20
180.000000
 40
2.000000
  0
LINE
  8
1
 62
7
  6
DASHDOT
 10
745.186000
 20
176.000000
 11
745.186000
 21
184.000000
  0
LINE
  8
1
 62
7
  6
DASHDOT
 10
741.186000
 20
180.000000
 11
749.186000
 21
180.000000
  0
CIRCLE
  8
1
 62
7
  6
CONTINUOUS
 10
495.186000
 20
180.000000
 40
1.650000
  0
CIRCLE
  8
1
 62
7
  6
CONTINUOUS
 10
495.186000
 20
180.000000
 40
2.000000
  0
LINE
  8
1
 62
7
  6
DASHDOT
 10
491.186000
 20
180.000000
 11
499.186000
 21
180.000000
  0
LINE
  8
1
 62
7
  6
DASHDOT
 10
495.186000
 20
184.000000
 11
495.186000
 21
176.000000
  0
LINE
  8
1
 62
7
  6
CONTINUOUS
 10
470.186000
 20
453.000000
 11
472.186000
 21
455.000000
  0
LINE
  8
1
 62
7
  6
CONTINUOUS
 10
470.186000
 20
157.000000
 11
470.186000
 21
453.000000
  0
LINE
  8
1
 62
7
  6
CONTINUOUS
 10
472.186000
 20
155.000000
 11
470.186000
 21
157.000000
  0
LINE
  8
1
 62
7
  6
CONTINUOUS
 10
768.186000
 20
155.000000
 11
472.186000
 21
155.000000
  0
LINE
  8
1
 62
7
  6
CONTINUOUS
 10
770.186000
 20
157.000000
 11
768.186000
 21
155.000000
  0
LINE
  8
1
 62
7
  6
CONTINUOUS
 10
472.186000
 20
455.000000
 11
768.186000
 21
455.000000
  0
LINE
  8
1
 62
7
  6
CONTINUOUS
 10
770.186000
 20
453.000000
 11
770.186000
 21
157.000000
  0
LINE
  8
1
 62
7
  6
CONTINUOUS
 10
768.186000
 20
455.000000
 11
770.186000
 21
453.000000
  0
CIRCLE
  8
1
 62
7
  6
HIDDEN
 10
570.186000
 20
255.000000
 40
4.000000
  0
CIRCLE
  8
1
 62
7
  6
HIDDEN
 10
670.186000
 20
255.000000
 40
4.000000
  0
CIRCLE
  8
1
 62
7
  6
HIDDEN
 10
670.186000
 20
355.000000
 40
4.000000
  0
CIRCLE
  8
1
 62
7
  6
HIDDEN
 10
570.186000
 20
355.000000
 40
4.000000
  0
LINE
  8
1
 62
7
  6
DASHDOT
 10
211.130000
 20
460.000000
 11
211.130000
 21
150.000000
  0
LINE
  8
1
 62
7
  6
DASHDOT
 10
366.130000
 20
305.000000
 11
56.130000
 21
305.000000
  0
CIRCLE
  8
1
 62
7
  6
CONTINUOUS
 10
211.130000
 20
305.000000
 40
1.650000
  0
CIRCLE
  8
1
 62
7
  6
CONTINUOUS
 10
211.130000
 20
305.000000
 40
2.000000
  0
CIRCLE
  8
1
 62
7
  6
CONTINUOUS
 10
211.130000
 20
380.000000
 40
1.650000
  0
CIRCLE
  8
1
 62
7
  6
CONTINUOUS
 10
211.130000
 20
380.000000
 40
2.000000
  0
LINE
  8
1
 62
7
  6
DASHDOT
 10
207.130000
 20
380.000000
 11
215.130000
 21
380.000000
  0
CIRCLE
  8
1
 62
7
  6
CONTINUOUS
 10
211.130000
 20
355.000000
 40
1.650000
  0
CIRCLE
  8
1
 62
7
  6
CONTINUOUS
 10
211.130000
 20
355.000000
 40
2.000000
  0
LINE
  8
1
 62
7
  6
DASHDOT
 10
207.130000
 20
355.000000
 11
215.130000
 21
355.000000
  0
CIRCLE
  8
1
 62
7
  6
CONTINUOUS
 10
211.130000
 20
405.000000
 40
1.650000
  0
CIRCLE
  8
1
 62
7
  6
CONTINUOUS
 10
211.130000
 20
405.000000
 40
2.000000
  0
LINE
  8
1
 62
7
  6
DASHDOT
 10
207.130000
 20
405.000000
 11
215.130000
 21
405.000000
  0
CIRCLE
  8
1
 62
7
  6
CONTINUOUS
 10
211.130000
 20
230.000000
 40
1.650000
  0
CIRCLE
  8
1
 62
7
  6
CONTINUOUS
 10
211.130000
 20
230.000000
 40
2.000000
  0
LINE
  8
1
 62
7
  6
DASHDOT
 10
215.130000
 20
230.000000
 11
207.130000
 21
230.000000
  0
CIRCLE
  8
1
 62
7
  6
CONTINUOUS
 10
211.130000
 20
255.000000
 40
1.650000
  0
CIRCLE
  8
1
 62
7
  6
CONTINUOUS
 10
211.130000
 20
255.000000
 40
2.000000
  0
LINE
  8
1
 62
7
  6
DASHDOT
 10
215.130000
 20
255.000000
 11
207.130000
 21
255.000000
  0
CIRCLE
  8
1
 62
7
  6
CONTINUOUS
 10
211.130000
 20
205.000000
 40
1.650000
  0
CIRCLE
  8
1
 62
7
  6
CONTINUOUS
 10
211.130000
 20
205.000000
 40
2.000000
  0
LINE
  8
1
 62
7
  6
DASHDOT
 10
215.130000
 20
205.000000
 11
207.130000
 21
205.000000
  0
CIRCLE
  8
1
 62
7
  6
CONTINUOUS
 10
286.130000
 20
305.000000
 40
1.650000
  0
CIRCLE
  8
1
 62
7
  6
CONTINUOUS
 10
286.130000
 20
305.000000
 40
2.000000
  0
LINE
  8
1
 62
7
  6
DASHDOT
 10
286.130000
 20
309.000000
 11
286.130000
 21
301.000000
  0
CIRCLE
  8
1
 62
7
  6
CONTINUOUS
 10
261.130000
 20
305.000000
 40
1.650000
  0
CIRCLE
  8
1
 62
7
  6
CONTINUOUS
 10
261.130000
 20
305.000000
 40
2.000000
  0
LINE
  8
1
 62
7
  6
DASHDOT
 10
261.130000
 20
309.000000
 11
261.130000
 21
301.000000
  0
CIRCLE
  8
1
 62
7
  6
CONTINUOUS
 10
311.130000
 20
305.000000
 40
1.650000
  0
CIRCLE
  8
1
 62
7
  6
CONTINUOUS
 10
311.130000
 20
305.000000
 40
2.000000
  0
LINE
  8
1
 62
7
  6
DASHDOT
 10
311.130000
 20
309.000000
 11
311.130000
 21
301.000000
  0
CIRCLE
  8
1
 62
7
  6
CONTINUOUS
 10
261.130000
 20
355.000000
 40
2.250000
  0
CIRCLE
  8
1
 62
7
  6
CONTINUOUS
 10
261.130000
 20
355.000000
 40
4.000000
  0
LINE
  8
1
 62
7
  6
DASHDOT
 10
261.130000
 20
361.000000
 11
261.130000
 21
349.000000
  0
LINE
  8
1
 62
7
  6
DASHDOT
 10
255.130000
 20
355.000000
 11
267.130000
 21
355.000000
  0
CIRCLE
  8
1
 62
7
  6
CONTINUOUS
 10
261.130000
 20
380.000000
 40
1.650000
  0
CIRCLE
  8
1
 62
7
  6
CONTINUOUS
 10
261.130000
 20
380.000000
 40
2.000000
  0
LINE
  8
1
 62
7
  6
DASHDOT
 10
261.130000
 20
384.000000
 11
261.130000
 21
376.000000
  0
LINE
  8
1
 62
7
  6
DASHDOT
 10
257.130000
 20
380.000000
 11
265.130000
 21
380.000000
  0
CIRCLE
  8
1
 62
7
  6
CONTINUOUS
 10
286.130000
 20
380.000000
 40
1.650000
  0
CIRCLE
  8
1
 62
7
  6
CONTINUOUS
 10
286.130000
 20
380.000000
 40
2.000000
  0
LINE
  8
1
 62
7
  6
DASHDOT
 10
286.130000
 20
384.000000
 11
286.130000
 21
376.000000
  0
LINE
  8
1
 62
7
  6
DASHDOT
 10
282.130000
 20
380.000000
 11
290.130000
 21
380.000000
  0
CIRCLE
  8
1
 62
7
  6
CONTINUOUS
 10
286.130000
 20
355.000000
 40
1.650000
  0
CIRCLE
  8
1
 62
7
  6
CONTINUOUS
 10
286.130000
 20
355.000000
 40
2.000000
  0
LINE
  8
1
 62
7
  6
DASHDOT
 10
286.130000
 20
359.000000
 11
286.130000
 21
351.000000
  0
LINE
  8
1
 62
7
  6
DASHDOT
 10
282.130000
 20
355.000000
 11
290.130000
 21
355.000000
  0
CIRCLE
  8
1
 62
7
  6
CONTINUOUS
 10
261.130000
 20
405.000000
 40
1.650000
  0
CIRCLE
  8
1
 62
7
  6
CONTINUOUS
 10
261.130000
 20
405.000000
 40
2.000000
  0
LINE
  8
1
 62
7
  6
DASHDOT
 10
261.130000
 20
409.000000
 11
261.130000
 21
401.000000
  0
LINE
  8
1
 62
7
  6
DASHDOT
 10
257.130000
 20
405.000000
 11
265.130000
 21
405.000000
  0
CIRCLE
  8
1
 62
7
  6
CONTINUOUS
 10
286.130000
 20
405.000000
 40
1.650000
  0
CIRCLE
  8
1
 62
7
  6
CONTINUOUS
 10
286.130000
 20
405.000000
 40
2.000000
  0
LINE
  8
1
 62
7
  6
DASHDOT
 10
286.130000
 20
409.000000
 11
286.130000
 21
401.000000
  0
LINE
  8
1
 62
7
  6
DASHDOT
 10
282.130000
 20
405.000000
 11
290.130000
 21
405.000000
  0
CIRCLE
  8
1
 62
7
  6
CONTINUOUS
 10
311.130000
 20
380.000000
 40
1.650000
  0
CIRCLE
  8
1
 62
7
  6
CONTINUOUS
 10
311.130000
 20
380.000000
 40
2.000000
  0
LINE
  8
1
 62
7
  6
DASHDOT
 10
311.130000
 20
384.000000
 11
311.130000
 21
376.000000
  0
LINE
  8
1
 62
7
  6
DASHDOT
 10
307.130000
 20
380.000000
 11
315.130000
 21
380.000000
  0
CIRCLE
  8
1
 62
7
  6
CONTINUOUS
 10
311.130000
 20
355.000000
 40
1.650000
  0
CIRCLE
  8
1
 62
7
  6
CONTINUOUS
 10
311.130000
 20
355.000000
 40
2.000000
  0
LINE
  8
1
 62
7
  6
DASHDOT
 10
311.130000
 20
359.000000
 11
311.130000
 21
351.000000
  0
LINE
  8
1
 62
7
  6
DASHDOT
 10
307.130000
 20
355.000000
 11
315.130000
 21
355.000000
  0
CIRCLE
  8
1
 62
7
  6
CONTINUOUS
 10
311.130000
 20
405.000000
 40
1.650000
  0
CIRCLE
  8
1
 62
7
  6
CONTINUOUS
 10
311.130000
 20
405.000000
 40
2.000000
  0
LINE
  8
1
 62
7
  6
DASHDOT
 10
311.130000
 20
409.000000
 11
311.130000
 21
401.000000
  0
LINE
  8
1
 62
7
  6
DASHDOT
 10
307.130000
 20
405.000000
 11
315.130000
 21
405.000000
  0
CIRCLE
  8
1
 62
7
  6
CONTINUOUS
 10
261.130000
 20
255.000000
 40
2.250000
  0
CIRCLE
  8
1
 62
7
  6
CONTINUOUS
 10
261.130000
 20
255.000000
 40
4.000000
  0
LINE
  8
1
 62
7
  6
DASHDOT
 10
267.130000
 20
255.000000
 11
255.130000
 21
255.000000
  0
LINE
  8
1
 62
7
  6
DASHDOT
 10
261.130000
 20
261.000000
 11
261.130000
 21
249.000000
  0
CIRCLE
  8
1
 62
7
  6
CONTINUOUS
 10
286.130000
 20
255.000000
 40
1.650000
  0
CIRCLE
  8
1
 62
7
  6
CONTINUOUS
 10
286.130000
 20
255.000000
 40
2.000000
  0
LINE
  8
1
 62
7
  6
DASHDOT
 10
290.130000
 20
255.000000
 11
282.130000
 21
255.000000
  0
LINE
  8
1
 62
7
  6
DASHDOT
 10
286.130000
 20
259.000000
 11
286.130000
 21
251.000000
  0
CIRCLE
  8
1
 62
7
  6
CONTINUOUS
 10
286.130000
 20
230.000000
 40
1.650000
  0
CIRCLE
  8
1
 62
7
  6
CONTINUOUS
 10
286.130000
 20
230.000000
 40
2.000000
  0
LINE
  8
1
 62
7
  6
DASHDOT
 10
290.130000
 20
230.000000
 11
282.130000
 21
230.000000
  0
LINE
  8
1
 62
7
  6
DASHDOT
 10
286.130000
 20
234.000000
 11
286.130000
 21
226.000000
  0
CIRCLE
  8
1
 62
7
  6
CONTINUOUS
 10
261.130000
 20
230.000000
 40
1.650000
  0
CIRCLE
  8
1
 62
7
  6
CONTINUOUS
 10
261.130000
 20
230.000000
 40
2.000000
  0
LINE
  8
1
 62
7
  6
DASHDOT
 10
265.130000
 20
230.000000
 11
257.130000
 21
230.000000
  0
LINE
  8
1
 62
7
  6
DASHDOT
 10
261.130000
 20
234.000000
 11
261.130000
 21
226.000000
  0
CIRCLE
  8
1
 62
7
  6
CONTINUOUS
 10
286.130000
 20
205.000000
 40
1.650000
  0
CIRCLE
  8
1
 62
7
  6
CONTINUOUS
 10
286.130000
 20
205.000000
 40
2.000000
  0
LINE
  8
1
 62
7
  6
DASHDOT
 10
290.130000
 20
205.000000
 11
282.130000
 21
205.000000
  0
LINE
  8
1
 62
7
  6
DASHDOT
 10
286.130000
 20
209.000000
 11
286.130000
 21
201.000000
  0
CIRCLE
  8
1
 62
7
  6
CONTINUOUS
 10
261.130000
 20
205.000000
 40
1.650000
  0
CIRCLE
  8
1
 62
7
  6
CONTINUOUS
 10
261.130000
 20
205.000000
 40
2.000000
  0
LINE
  8
1
 62
7
  6
DASHDOT
 10
265.130000
 20
205.000000
 11
257.130000
 21
205.000000
  0
LINE
  8
1
 62
7
  6
DASHDOT
 10
261.130000
 20
209.000000
 11
261.130000
 21
201.000000
  0
CIRCLE
  8
1
 62
7
  6
CONTINUOUS
 10
311.130000
 20
255.000000
 40
1.650000
  0
CIRCLE
  8
1
 62
7
  6
CONTINUOUS
 10
311.130000
 20
255.000000
 40
2.000000
  0
LINE
  8
1
 62
7
  6
DASHDOT
 10
315.130000
 20
255.000000
 11
307.130000
 21
255.000000
  0
LINE
  8
1
 62
7
  6
DASHDOT
 10
311.130000
 20
259.000000
 11
311.130000
 21
251.000000
  0
CIRCLE
  8
1
 62
7
  6
CONTINUOUS
 10
311.130000
 20
230.000000
 40
1.650000
  0
CIRCLE
  8
1
 62
7
  6
CONTINUOUS
 10
311.130000
 20
230.000000
 40
2.000000
  0
LINE
  8
1
 62
7
  6
DASHDOT
 10
315.130000
 20
230.000000
 11
307.130000
 21
230.000000
  0
LINE
  8
1
 62
7
  6
DASHDOT
 10
311.130000
 20
234.000000
 11
311.130000
 21
226.000000
  0
CIRCLE
  8
1
 62
7
  6
CONTINUOUS
 10
311.130000
 20
205.000000
 40
1.650000
  0
CIRCLE
  8
1
 62
7
  6
CONTINUOUS
 10
311.130000
 20
205.000000
 40
2.000000
  0
LINE
  8
1
 62
7
  6
DASHDOT
 10
315.130000
 20
205.000000
 11
307.130000
 21
205.000000
  0
LINE
  8
1
 62
7
  6
DASHDOT
 10
311.130000
 20
209.000000
 11
311.130000
 21
201.000000
  0
CIRCLE
  8
1
 62
7
  6
CONTINUOUS
 10
136.130000
 20
305.000000
 40
1.650000
  0
CIRCLE
  8
1
 62
7
  6
CONTINUOUS
 10
136.130000
 20
305.000000
 40
2.000000
  0
LINE
  8
1
 62
7
  6
DASHDOT
 10
136.130000
 20
301.000000
 11
136.130000
 21
309.000000
  0
CIRCLE
  8
1
 62
7
  6
CONTINUOUS
 10
161.130000
 20
305.000000
 40
1.650000
  0
CIRCLE
  8
1
 62
7
  6
CONTINUOUS
 10
161.130000
 20
305.000000
 40
2.000000
  0
LINE
  8
1
 62
7
  6
DASHDOT
 10
161.130000
 20
301.000000
 11
161.130000
 21
309.000000
  0
CIRCLE
  8
1
 62
7
  6
CONTINUOUS
 10
111.130000
 20
305.000000
 40
1.650000
  0
CIRCLE
  8
1
 62
7
  6
CONTINUOUS
 10
111.130000
 20
305.000000
 40
2.000000
  0
LINE
  8
1
 62
7
  6
DASHDOT
 10
111.130000
 20
301.000000
 11
111.130000
 21
309.000000
  0
CIRCLE
  8
1
 62
7
  6
CONTINUOUS
 10
161.130000
 20
355.000000
 40
2.250000
  0
CIRCLE
  8
1
 62
7
  6
CONTINUOUS
 10
161.130000
 20
355.000000
 40
4.000000
  0
LINE
  8
1
 62
7
  6
DASHDOT
 10
155.130000
 20
355.000000
 11
167.130000
 21
355.000000
  0
LINE
  8
1
 62
7
  6
DASHDOT
 10
161.130000
 20
349.000000
 11
161.130000
 21
361.000000
  0
CIRCLE
  8
1
 62
7
  6
CONTINUOUS
 10
136.130000
 20
355.000000
 40
1.650000
  0
CIRCLE
  8
1
 62
7
  6
CONTINUOUS
 10
136.130000
 20
355.000000
 40
2.000000
  0
LINE
  8
1
 62
7
  6
DASHDOT
 10
132.130000
 20
355.000000
 11
140.130000
 21
355.000000
  0
LINE
  8
1
 62
7
  6
DASHDOT
 10
136.130000
 20
351.000000
 11
136.130000
 21
359.000000
  0
CIRCLE
  8
1
 62
7
  6
CONTINUOUS
 10
136.130000
 20
380.000000
 40
1.650000
  0
CIRCLE
  8
1
 62
7
  6
CONTINUOUS
 10
136.130000
 20
380.000000
 40
2.000000
  0
LINE
  8
1
 62
7
  6
DASHDOT
 10
132.130000
 20
380.000000
 11
140.130000
 21
380.000000
  0
LINE
  8
1
 62
7
  6
DASHDOT
 10
136.130000
 20
376.000000
 11
136.130000
 21
384.000000
  0
CIRCLE
  8
1
 62
7
  6
CONTINUOUS
 10
161.130000
 20
380.000000
 40
1.650000
  0
CIRCLE
  8
1
 62
7
  6
CONTINUOUS
 10
161.130000
 20
380.000000
 40
2.000000
  0
LINE
  8
1
 62
7
  6
DASHDOT
 10
157.130000
 20
380.000000
 11
165.130000
 21
380.000000
  0
LINE
  8
1
 62
7
  6
DASHDOT
 10
161.130000
 20
376.000000
 11
161.130000
 21
384.000000
  0
CIRCLE
  8
1
 62
7
  6
CONTINUOUS
 10
136.130000
 20
405.000000
 40
1.650000
  0
CIRCLE
  8
1
 62
7
  6
CONTINUOUS
 10
136.130000
 20
405.000000
 40
2.000000
  0
LINE
  8
1
 62
7
  6
DASHDOT
 10
132.130000
 20
405.000000
 11
140.130000
 21
405.000000
  0
LINE
  8
1
 62
7
  6
DASHDOT
 10
136.130000
 20
401.000000
 11
136.130000
 21
409.000000
  0
CIRCLE
  8
1
 62
7
  6
CONTINUOUS
 10
161.130000
 20
405.000000
 40
1.650000
  0
CIRCLE
  8
1
 62
7
  6
CONTINUOUS
 10
161.130000
 20
405.000000
 40
2.000000
  0
LINE
  8
1
 62
7
  6
DASHDOT
 10
157.130000
 20
405.000000
 11
165.130000
 21
405.000000
  0
LINE
  8
1
 62
7
  6
DASHDOT
 10
161.130000
 20
401.000000
 11
161.130000
 21
409.000000
  0
CIRCLE
  8
1
 62
7
  6
CONTINUOUS
 10
111.130000
 20
355.000000
 40
1.650000
  0
CIRCLE
  8
1
 62
7
  6
CONTINUOUS
 10
111.130000
 20
355.000000
 40
2.000000
  0
LINE
  8
1
 62
7
  6
DASHDOT
 10
107.130000
 20
355.000000
 11
115.130000
 21
355.000000
  0
LINE
  8
1
 62
7
  6
DASHDOT
 10
111.130000
 20
351.000000
 11
111.130000
 21
359.000000
  0
CIRCLE
  8
1
 62
7
  6
CONTINUOUS
 10
111.130000
 20
380.000000
 40
1.650000
  0
CIRCLE
  8
1
 62
7
  6
CONTINUOUS
 10
111.130000
 20
380.000000
 40
2.000000
  0
LINE
  8
1
 62
7
  6
DASHDOT
 10
107.130000
 20
380.000000
 11
115.130000
 21
380.000000
  0
LINE
  8
1
 62
7
  6
DASHDOT
 10
111.130000
 20
376.000000
 11
111.130000
 21
384.000000
  0
CIRCLE
  8
1
 62
7
  6
CONTINUOUS
 10
111.130000
 20
405.000000
 40
1.650000
  0
CIRCLE
  8
1
 62
7
  6
CONTINUOUS
 10
111.130000
 20
405.000000
 40
2.000000
  0
LINE
  8
1
 62
7
  6
DASHDOT
 10
107.130000
 20
405.000000
 11
115.130000
 21
405.000000
  0
LINE
  8
1
 62
7
  6
DASHDOT
 10
111.130000
 20
401.000000
 11
111.130000
 21
409.000000
  0
CIRCLE
  8
1
 62
7
  6
CONTINUOUS
 10
161.130000
 20
255.000000
 40
2.250000
  0
CIRCLE
  8
1
 62
7
  6
CONTINUOUS
 10
161.130000
 20
255.000000
 40
4.000000
  0
LINE
  8
1
 62
7
  6
DASHDOT
 10
161.130000
 20
249.000000
 11
161.130000
 21
261.000000
  0
LINE
  8
1
 62
7
  6
DASHDOT
 10
167.130000
 20
255.000000
 11
155.130000
 21
255.000000
  0
CIRCLE
  8
1
 62
7
  6
CONTINUOUS
 10
161.130000
 20
230.000000
 40
1.650000
  0
CIRCLE
  8
1
 62
7
  6
CONTINUOUS
 10
161.130000
 20
230.000000
 40
2.000000
  0
LINE
  8
1
 62
7
  6
DASHDOT
 10
161.130000
 20
226.000000
 11
161.130000
 21
234.000000
  0
LINE
  8
1
 62
7
  6
DASHDOT
 10
165.130000
 20
230.000000
 11
157.130000
 21
230.000000
  0
CIRCLE
  8
1
 62
7
  6
CONTINUOUS
 10
136.130000
 20
230.000000
 40
1.650000
  0
CIRCLE
  8
1
 62
7
  6
CONTINUOUS
 10
136.130000
 20
230.000000
 40
2.000000
  0
LINE
  8
1
 62
7
  6
DASHDOT
 10
136.130000
 20
226.000000
 11
136.130000
 21
234.000000
  0
LINE
  8
1
 62
7
  6
DASHDOT
 10
140.130000
 20
230.000000
 11
132.130000
 21
230.000000
  0
CIRCLE
  8
1
 62
7
  6
CONTINUOUS
 10
136.130000
 20
255.000000
 40
1.650000
  0
CIRCLE
  8
1
 62
7
  6
CONTINUOUS
 10
136.130000
 20
255.000000
 40
2.000000
  0
LINE
  8
1
 62
7
  6
DASHDOT
 10
136.130000
 20
251.000000
 11
136.130000
 21
259.000000
  0
LINE
  8
1
 62
7
  6
DASHDOT
 10
140.130000
 20
255.000000
 11
132.130000
 21
255.000000
  0
CIRCLE
  8
1
 62
7
  6
CONTINUOUS
 10
161.130000
 20
205.000000
 40
1.650000
  0
CIRCLE
  8
1
 62
7
  6
CONTINUOUS
 10
161.130000
 20
205.000000
 40
2.000000
  0
LINE
  8
1
 62
7
  6
DASHDOT
 10
161.130000
 20
201.000000
 11
161.130000
 21
209.000000
  0
LINE
  8
1
 62
7
  6
DASHDOT
 10
165.130000
 20
205.000000
 11
157.130000
 21
205.000000
  0
CIRCLE
  8
1
 62
7
  6
CONTINUOUS
 10
136.130000
 20
205.000000
 40
1.650000
  0
CIRCLE
  8
1
 62
7
  6
CONTINUOUS
 10
136.130000
 20
205.000000
 40
2.000000
  0
LINE
  8
1
 62
7
  6
DASHDOT
 10
136.130000
 20
201.000000
 11
136.130000
 21
209.000000
  0
LINE
  8
1
 62
7
  6
DASHDOT
 10
140.130000
 20
205.000000
 11
132.130000
 21
205.000000
  0
CIRCLE
  8
1
 62
7
  6
CONTINUOUS
 10
111.130000
 20
230.000000
 40
1.650000
  0
CIRCLE
  8
1
 62
7
  6
CONTINUOUS
 10
111.130000
 20
230.000000
 40
2.000000
  0
LINE
  8
1
 62
7
  6
DASHDOT
 10
111.130000
 20
226.000000
 11
111.130000
 21
234.000000
  0
LINE
  8
1
 62
7
  6
DASHDOT
 10
115.130000
 20
230.000000
 11
107.130000
 21
230.000000
  0
CIRCLE
  8
1
 62
7
  6
CONTINUOUS
 10
111.130000
 20
255.000000
 40
1.650000
  0
CIRCLE
  8
1
 62
7
  6
CONTINUOUS
 10
111.130000
 20
255.000000
 40
2.000000
  0
LINE
  8
1
 62
7
  6
DASHDOT
 10
111.130000
 20
251.000000
 11
111.130000
 21
259.000000
  0
LINE
  8
1
 62
7
  6
DASHDOT
 10
115.130000
 20
255.000000
 11
107.130000
 21
255.000000
  0
CIRCLE
  8
1
 62
7
  6
CONTINUOUS
 10
111.130000
 20
205.000000
 40
1.650000
  0
CIRCLE
  8
1
 62
7
  6
CONTINUOUS
 10
111.130000
 20
205.000000
 40
2.000000
  0
LINE
  8
1
 62
7
  6
DASHDOT
 10
111.130000
 20
201.000000
 11
111.130000
 21
209.000000
  0
LINE
  8
1
 62
7
  6
DASHDOT
 10
115.130000
 20
205.000000
 11
107.130000
 21
205.000000
  0
CIRCLE
  8
1
 62
7
  6
CONTINUOUS
 10
186.130000
 20
305.000000
 40
1.650000
  0
CIRCLE
  8
1
 62
7
  6
CONTINUOUS
 10
186.130000
 20
305.000000
 40
2.000000
  0
LINE
  8
1
 62
7
  6
DASHDOT
 10
186.130000
 20
301.000000
 11
186.130000
 21
309.000000
  0
CIRCLE
  8
1
 62
7
  6
CONTINUOUS
 10
186.130000
 20
355.000000
 40
1.650000
  0
CIRCLE
  8
1
 62
7
  6
CONTINUOUS
 10
186.130000
 20
355.000000
 40
2.000000
  0
LINE
  8
1
 62
7
  6
DASHDOT
 10
190.130000
 20
355.000000
 11
182.130000
 21
355.000000
  0
LINE
  8
1
 62
7
  6
DASHDOT
 10
186.130000
 20
351.000000
 11
186.130000
 21
359.000000
  0
CIRCLE
  8
1
 62
7
  6
CONTINUOUS
 10
186.130000
 20
380.000000
 40
1.650000
  0
CIRCLE
  8
1
 62
7
  6
CONTINUOUS
 10
186.130000
 20
380.000000
 40
2.000000
  0
LINE
  8
1
 62
7
  6
DASHDOT
 10
190.130000
 20
380.000000
 11
182.130000
 21
380.000000
  0
LINE
  8
1
 62
7
  6
DASHDOT
 10
186.130000
 20
376.000000
 11
186.130000
 21
384.000000
  0
CIRCLE
  8
1
 62
7
  6
CONTINUOUS
 10
186.130000
 20
405.000000
 40
1.650000
  0
CIRCLE
  8
1
 62
7
  6
CONTINUOUS
 10
186.130000
 20
405.000000
 40
2.000000
  0
LINE
  8
1
 62
7
  6
DASHDOT
 10
190.130000
 20
405.000000
 11
182.130000
 21
405.000000
  0
LINE
  8
1
 62
7
  6
DASHDOT
 10
186.130000
 20
401.000000
 11
186.130000
 21
409.000000
  0
CIRCLE
  8
1
 62
7
  6
CONTINUOUS
 10
186.130000
 20
230.000000
 40
1.650000
  0
CIRCLE
  8
1
 62
7
  6
CONTINUOUS
 10
186.130000
 20
230.000000
 40
2.000000
  0
LINE
  8
1
 62
7
  6
DASHDOT
 10
186.130000
 20
226.000000
 11
186.130000
 21
234.000000
  0
LINE
  8
1
 62
7
  6
DASHDOT
 10
182.130000
 20
230.000000
 11
190.130000
 21
230.000000
  0
CIRCLE
  8
1
 62
7
  6
CONTINUOUS
 10
186.130000
 20
255.000000
 40
1.650000
  0
CIRCLE
  8
1
 62
7
  6
CONTINUOUS
 10
186.130000
 20
255.000000
 40
2.000000
  0
LINE
  8
1
 62
7
  6
DASHDOT
 10
186.130000
 20
251.000000
 11
186.130000
 21
259.000000
  0
LINE
  8
1
 62
7
  6
DASHDOT
 10
182.130000
 20
255.000000
 11
190.130000
 21
255.000000
  0
CIRCLE
  8
1
 62
7
  6
CONTINUOUS
 10
186.130000
 20
205.000000
 40
1.650000
  0
CIRCLE
  8
1
 62
7
  6
CONTINUOUS
 10
186.130000
 20
205.000000
 40
2.000000
  0
LINE
  8
1
 62
7
  6
DASHDOT
 10
186.130000
 20
201.000000
 11
186.130000
 21
209.000000
  0
LINE
  8
1
 62
7
  6
DASHDOT
 10
182.130000
 20
205.000000
 11
190.130000
 21
205.000000
  0
CIRCLE
  8
1
 62
7
  6
CONTINUOUS
 10
236.130000
 20
305.000000
 40
1.650000
  0
CIRCLE
  8
1
 62
7
  6
CONTINUOUS
 10
236.130000
 20
305.000000
 40
2.000000
  0
LINE
  8
1
 62
7
  6
DASHDOT
 10
236.130000
 20
309.000000
 11
236.130000
 21
301.000000
  0
CIRCLE
  8
1
 62
7
  6
CONTINUOUS
 10
236.130000
 20
380.000000
 40
1.650000
  0
CIRCLE
  8
1
 62
7
  6
CONTINUOUS
 10
236.130000
 20
380.000000
 40
2.000000
  0
LINE
  8
1
 62
7
  6
DASHDOT
 10
236.130000
 20
384.000000
 11
236.130000
 21
376.000000
  0
LINE
  8
1
 62
7
  6
DASHDOT
 10
240.130000
 20
380.000000
 11
232.130000
 21
380.000000
  0
CIRCLE
  8
1
 62
7
  6
CONTINUOUS
 10
236.130000
 20
355.000000
 40
1.650000
  0
CIRCLE
  8
1
 62
7
  6
CONTINUOUS
 10
236.130000
 20
355.000000
 40
2.000000
  0
LINE
  8
1
 62
7
  6
DASHDOT
 10
236.130000
 20
359.000000
 11
236.130000
 21
351.000000
  0
LINE
  8
1
 62
7
  6
DASHDOT
 10
240.130000
 20
355.000000
 11
232.130000
 21
355.000000
  0
CIRCLE
  8
1
 62
7
  6
CONTINUOUS
 10
236.130000
 20
405.000000
 40
1.650000
  0
CIRCLE
  8
1
 62
7
  6
CONTINUOUS
 10
236.130000
 20
405.000000
 40
2.000000
  0
LINE
  8
1
 62
7
  6
DASHDOT
 10
236.130000
 20
409.000000
 11
236.130000
 21
401.000000
  0
LINE
  8
1
 62
7
  6
DASHDOT
 10
240.130000
 20
405.000000
 11
232.130000
 21
405.000000
  0
CIRCLE
  8
1
 62
7
  6
CONTINUOUS
 10
236.130000
 20
255.000000
 40
1.650000
  0
CIRCLE
  8
1
 62
7
  6
CONTINUOUS
 10
236.130000
 20
255.000000
 40
2.000000
  0
LINE
  8
1
 62
7
  6
DASHDOT
 10
232.130000
 20
255.000000
 11
240.130000
 21
255.000000
  0
LINE
  8
1
 62
7
  6
DASHDOT
 10
236.130000
 20
259.000000
 11
236.130000
 21
251.000000
  0
CIRCLE
  8
1
 62
7
  6
CONTINUOUS
 10
236.130000
 20
230.000000
 40
1.650000
  0
CIRCLE
  8
1
 62
7
  6
CONTINUOUS
 10
236.130000
 20
230.000000
 40
2.000000
  0
LINE
  8
1
 62
7
  6
DASHDOT
 10
232.130000
 20
230.000000
 11
240.130000
 21
230.000000
  0
LINE
  8
1
 62
7
  6
DASHDOT
 10
236.130000
 20
234.000000
 11
236.130000
 21
226.000000
  0
CIRCLE
  8
1
 62
7
  6
CONTINUOUS
 10
236.130000
 20
205.000000
 40
1.650000
  0
CIRCLE
  8
1
 62
7
  6
CONTINUOUS
 10
236.130000
 20
205.000000
 40
2.000000
  0
LINE
  8
1
 62
7
  6
DASHDOT
 10
232.130000
 20
205.000000
 11
240.130000
 21
205.000000
  0
LINE
  8
1
 62
7
  6
DASHDOT
 10
236.130000
 20
209.000000
 11
236.130000
 21
201.000000
  0
CIRCLE
  8
1
 62
7
  6
CONTINUOUS
 10
211.130000
 20
330.000000
 40
1.650000
  0
CIRCLE
  8
1
 62
7
  6
CONTINUOUS
 10
211.130000
 20
330.000000
 40
2.000000
  0
LINE
  8
1
 62
7
  6
DASHDOT
 10
207.130000
 20
330.000000
 11
215.130000
 21
330.000000
  0
CIRCLE
  8
1
 62
7
  6
CONTINUOUS
 10
261.130000
 20
330.000000
 40
1.650000
  0
CIRCLE
  8
1
 62
7
  6
CONTINUOUS
 10
261.130000
 20
330.000000
 40
2.000000
  0
LINE
  8
1
 62
7
  6
DASHDOT
 10
261.130000
 20
326.000000
 11
261.130000
 21
334.000000
  0
LINE
  8
1
 62
7
  6
DASHDOT
 10
257.130000
 20
330.000000
 11
265.130000
 21
330.000000
  0
CIRCLE
  8
1
 62
7
  6
CONTINUOUS
 10
286.130000
 20
330.000000
 40
1.650000
  0
CIRCLE
  8
1
 62
7
  6
CONTINUOUS
 10
286.130000
 20
330.000000
 40
2.000000
  0
LINE
  8
1
 62
7
  6
DASHDOT
 10
286.130000
 20
326.000000
 11
286.130000
 21
334.000000
  0
LINE
  8
1
 62
7
  6
DASHDOT
 10
282.130000
 20
330.000000
 11
290.130000
 21
330.000000
  0
CIRCLE
  8
1
 62
7
  6
CONTINUOUS
 10
311.130000
 20
330.000000
 40
1.650000
  0
CIRCLE
  8
1
 62
7
  6
CONTINUOUS
 10
311.130000
 20
330.000000
 40
2.000000
  0
LINE
  8
1
 62
7
  6
DASHDOT
 10
311.130000
 20
326.000000
 11
311.130000
 21
334.000000
  0
LINE
  8
1
 62
7
  6
DASHDOT
 10
307.130000
 20
330.000000
 11
315.130000
 21
330.000000
  0
CIRCLE
  8
1
 62
7
  6
CONTINUOUS
 10
136.130000
 20
330.000000
 40
1.650000
  0
CIRCLE
  8
1
 62
7
  6
CONTINUOUS
 10
136.130000
 20
330.000000
 40
2.000000
  0
LINE
  8
1
 62
7
  6
DASHDOT
 10
132.130000
 20
330.000000
 11
140.130000
 21
330.000000
  0
LINE
  8
1
 62
7
  6
DASHDOT
 10
136.130000
 20
334.000000
 11
136.130000
 21
326.000000
  0
CIRCLE
  8
1
 62
7
  6
CONTINUOUS
 10
161.130000
 20
330.000000
 40
1.650000
  0
CIRCLE
  8
1
 62
7
  6
CONTINUOUS
 10
161.130000
 20
330.000000
 40
2.000000
  0
LINE
  8
1
 62
7
  6
DASHDOT
 10
157.130000
 20
330.000000
 11
165.130000
 21
330.000000
  0
LINE
  8
1
 62
7
  6
DASHDOT
 10
161.130000
 20
334.000000
 11
161.130000
 21
326.000000
  0
CIRCLE
  8
1
 62
7
  6
CONTINUOUS
 10
111.130000
 20
330.000000
 40
1.650000
  0
CIRCLE
  8
1
 62
7
  6
CONTINUOUS
 10
111.130000
 20
330.000000
 40
2.000000
  0
LINE
  8
1
 62
7
  6
DASHDOT
 10
107.130000
 20
330.000000
 11
115.130000
 21
330.000000
  0
LINE
  8
1
 62
7
  6
DASHDOT
 10
111.130000
 20
334.000000
 11
111.130000
 21
326.000000
  0
CIRCLE
  8
1
 62
7
  6
CONTINUOUS
 10
186.130000
 20
330.000000
 40
1.650000
  0
CIRCLE
  8
1
 62
7
  6
CONTINUOUS
 10
186.130000
 20
330.000000
 40
2.000000
  0
LINE
  8
1
 62
7
  6
DASHDOT
 10
190.130000
 20
330.000000
 11
182.130000
 21
330.000000
  0
LINE
  8
1
 62
7
  6
DASHDOT
 10
186.130000
 20
334.000000
 11
186.130000
 21
326.000000
  0
CIRCLE
  8
1
 62
7
  6
CONTINUOUS
 10
236.130000
 20
330.000000
 40
1.650000
  0
CIRCLE
  8
1
 62
7
  6
CONTINUOUS
 10
236.130000
 20
330.000000
 40
2.000000
  0
LINE
  8
1
 62
7
  6
DASHDOT
 10
236.130000
 20
326.000000
 11
236.130000
 21
334.000000
  0
LINE
  8
1
 62
7
  6
DASHDOT
 10
240.130000
 20
330.000000
 11
232.130000
 21
330.000000
  0
CIRCLE
  8
1
 62
7
  6
CONTINUOUS
 10
211.130000
 20
280.000000
 40
1.650000
  0
CIRCLE
  8
1
 62
7
  6
CONTINUOUS
 10
211.130000
 20
280.000000
 40
2.000000
  0
LINE
  8
1
 62
7
  6
DASHDOT
 10
215.130000
 20
280.000000
 11
207.130000
 21
280.000000
  0
CIRCLE
  8
1
 62
7
  6
CONTINUOUS
 10
286.130000
 20
280.000000
 40
1.650000
  0
CIRCLE
  8
1
 62
7
  6
CONTINUOUS
 10
286.130000
 20
280.000000
 40
2.000000
  0
LINE
  8
1
 62
7
  6
DASHDOT
 10
290.130000
 20
280.000000
 11
282.130000
 21
280.000000
  0
LINE
  8
1
 62
7
  6
DASHDOT
 10
286.130000
 20
276.000000
 11
286.130000
 21
284.000000
  0
CIRCLE
  8
1
 62
7
  6
CONTINUOUS
 10
261.130000
 20
280.000000
 40
1.650000
  0
CIRCLE
  8
1
 62
7
  6
CONTINUOUS
 10
261.130000
 20
280.000000
 40
2.000000
  0
LINE
  8
1
 62
7
  6
DASHDOT
 10
265.130000
 20
280.000000
 11
257.130000
 21
280.000000
  0
LINE
  8
1
 62
7
  6
DASHDOT
 10
261.130000
 20
276.000000
 11
261.130000
 21
284.000000
  0
CIRCLE
  8
1
 62
7
  6
CONTINUOUS
 10
311.130000
 20
280.000000
 40
1.650000
  0
CIRCLE
  8
1
 62
7
  6
CONTINUOUS
 10
311.130000
 20
280.000000
 40
2.000000
  0
LINE
  8
1
 62
7
  6
DASHDOT
 10
315.130000
 20
280.000000
 11
307.130000
 21
280.000000
  0
LINE
  8
1
 62
7
  6
DASHDOT
 10
311.130000
 20
276.000000
 11
311.130000
 21
284.000000
  0
CIRCLE
  8
1
 62
7
  6
CONTINUOUS
 10
161.130000
 20
280.000000
 40
1.650000
  0
CIRCLE
  8
1
 62
7
  6
CONTINUOUS
 10
161.130000
 20
280.000000
 40
2.000000
  0
LINE
  8
1
 62
7
  6
DASHDOT
 10
161.130000
 20
284.000000
 11
161.130000
 21
276.000000
  0
LINE
  8
1
 62
7
  6
DASHDOT
 10
165.130000
 20
280.000000
 11
157.130000
 21
280.000000
  0
CIRCLE
  8
1
 62
7
  6
CONTINUOUS
 10
136.130000
 20
280.000000
 40
1.650000
  0
CIRCLE
  8
1
 62
7
  6
CONTINUOUS
 10
136.130000
 20
280.000000
 40
2.000000
  0
LINE
  8
1
 62
7
  6
DASHDOT
 10
136.130000
 20
284.000000
 11
136.130000
 21
276.000000
  0
LINE
  8
1
 62
7
  6
DASHDOT
 10
140.130000
 20
280.000000
 11
132.130000
 21
280.000000
  0
CIRCLE
  8
1
 62
7
  6
CONTINUOUS
 10
111.130000
 20
280.000000
 40
1.650000
  0
CIRCLE
  8
1
 62
7
  6
CONTINUOUS
 10
111.130000
 20
280.000000
 40
2.000000
  0
LINE
  8
1
 62
7
  6
DASHDOT
 10
111.130000
 20
284.000000
 11
111.130000
 21
276.000000
  0
LINE
  8
1
 62
7
  6
DASHDOT
 10
115.130000
 20
280.000000
 11
107.130000
 21
280.000000
  0
CIRCLE
  8
1
 62
7
  6
CONTINUOUS
 10
186.130000
 20
280.000000
 40
1.650000
  0
CIRCLE
  8
1
 62
7
  6
CONTINUOUS
 10
186.130000
 20
280.000000
 40
2.000000
  0
LINE
  8
1
 62
7
  6
DASHDOT
 10
186.130000
 20
284.000000
 11
186.130000
 21
276.000000
  0
LINE
  8
1
 62
7
  6
DASHDOT
 10
182.130000
 20
280.000000
 11
190.130000
 21
280.000000
  0
CIRCLE
  8
1
 62
7
  6
CONTINUOUS
 10
236.130000
 20
280.000000
 40
1.650000
  0
CIRCLE
  8
1
 62
7
  6
CONTINUOUS
 10
236.130000
 20
280.000000
 40
2.000000
  0
LINE
  8
1
 62
7
  6
DASHDOT
 10
232.130000
 20
280.000000
 11
240.130000
 21
280.000000
  0
LINE
  8
1
 62
7
  6
DASHDOT
 10
236.130000
 20
276.000000
 11
236.130000
 21
284.000000
  0
CIRCLE
  8
1
 62
7
  6
CONTINUOUS
 10
86.130000
 20
305.000000
 40
1.650000
  0
CIRCLE
  8
1
 62
7
  6
CONTINUOUS
 10
86.130000
 20
305.000000
 40
2.000000
  0
LINE
  8
1
 62
7
  6
DASHDOT
 10
86.130000
 20
301.000000
 11
86.130000
 21
309.000000
  0
CIRCLE
  8
1
 62
7
  6
CONTINUOUS
 10
86.130000
 20
355.000000
 40
1.650000
  0
CIRCLE
  8
1
 62
7
  6
CONTINUOUS
 10
86.130000
 20
355.000000
 40
2.000000
  0
LINE
  8
1
 62
7
  6
DASHDOT
 10
82.130000
 20
355.000000
 11
90.130000
 21
355.000000
  0
LINE
  8
1
 62
7
  6
DASHDOT
 10
86.130000
 20
351.000000
 11
86.130000
 21
359.000000
  0
CIRCLE
  8
1
 62
7
  6
CONTINUOUS
 10
86.130000
 20
380.000000
 40
1.650000
  0
CIRCLE
  8
1
 62
7
  6
CONTINUOUS
 10
86.130000
 20
380.000000
 40
2.000000
  0
LINE
  8
1
 62
7
  6
DASHDOT
 10
82.130000
 20
380.000000
 11
90.130000
 21
380.000000
  0
LINE
  8
1
 62
7
  6
DASHDOT
 10
86.130000
 20
376.000000
 11
86.130000
 21
384.000000
  0
CIRCLE
  8
1
 62
7
  6
CONTINUOUS
 10
86.130000
 20
405.000000
 40
1.650000
  0
CIRCLE
  8
1
 62
7
  6
CONTINUOUS
 10
86.130000
 20
405.000000
 40
2.000000
  0
LINE
  8
1
 62
7
  6
DASHDOT
 10
82.130000
 20
405.000000
 11
90.130000
 21
405.000000
  0
LINE
  8
1
 62
7
  6
DASHDOT
 10
86.130000
 20
401.000000
 11
86.130000
 21
409.000000
  0
CIRCLE
  8
1
 62
7
  6
CONTINUOUS
 10
86.130000
 20
230.000000
 40
1.650000
  0
CIRCLE
  8
1
 62
7
  6
CONTINUOUS
 10
86.130000
 20
230.000000
 40
2.000000
  0
LINE
  8
1
 62
7
  6
DASHDOT
 10
86.130000
 20
226.000000
 11
86.130000
 21
234.000000
  0
LINE
  8
1
 62
7
  6
DASHDOT
 10
90.130000
 20
230.000000
 11
82.130000
 21
230.000000
  0
CIRCLE
  8
1
 62
7
  6
CONTINUOUS
 10
86.130000
 20
255.000000
 40
1.650000
  0
CIRCLE
  8
1
 62
7
  6
CONTINUOUS
 10
86.130000
 20
255.000000
 40
2.000000
  0
LINE
  8
1
 62
7
  6
DASHDOT
 10
86.130000
 20
251.000000
 11
86.130000
 21
259.000000
  0
LINE
  8
1
 62
7
  6
DASHDOT
 10
90.130000
 20
255.000000
 11
82.130000
 21
255.000000
  0
CIRCLE
  8
1
 62
7
  6
CONTINUOUS
 10
86.130000
 20
205.000000
 40
1.650000
  0
CIRCLE
  8
1
 62
7
  6
CONTINUOUS
 10
86.130000
 20
205.000000
 40
2.000000
  0
LINE
  8
1
 62
7
  6
DASHDOT
 10
86.130000
 20
201.000000
 11
86.130000
 21
209.000000
  0
LINE
  8
1
 62
7
  6
DASHDOT
 10
90.130000
 20
205.000000
 11
82.130000
 21
205.000000
  0
CIRCLE
  8
1
 62
7
  6
CONTINUOUS
 10
86.130000
 20
330.000000
 40
1.650000
  0
CIRCLE
  8
1
 62
7
  6
CONTINUOUS
 10
86.130000
 20
330.000000
 40
2.000000
  0
LINE
  8
1
 62
7
  6
DASHDOT
 10
82.130000
 20
330.000000
 11
90.130000
 21
330.000000
  0
LINE
  8
1
 62
7
  6
DASHDOT
 10
86.130000
 20
334.000000
 11
86.130000
 21
326.000000
  0
CIRCLE
  8
1
 62
7
  6
CONTINUOUS
 10
86.130000
 20
280.000000
 40
1.650000
  0
CIRCLE
  8
1
 62
7
  6
CONTINUOUS
 10
86.130000
 20
280.000000
 40
2.000000
  0
LINE
  8
1
 62
7
  6
DASHDOT
 10
86.130000
 20
284.000000
 11
86.130000
 21
276.000000
  0
LINE
  8
1
 62
7
  6
DASHDOT
 10
90.130000
 20
280.000000
 11
82.130000
 21
280.000000
  0
CIRCLE
  8
1
 62
7
  6
CONTINUOUS
 10
336.130000
 20
305.000000
 40
1.650000
  0
CIRCLE
  8
1
 62
7
  6
CONTINUOUS
 10
336.130000
 20
305.000000
 40
2.000000
  0
LINE
  8
1
 62
7
  6
DASHDOT
 10
336.130000
 20
309.000000
 11
336.130000
 21
301.000000
  0
CIRCLE
  8
1
 62
7
  6
CONTINUOUS
 10
336.130000
 20
380.000000
 40
1.650000
  0
CIRCLE
  8
1
 62
7
  6
CONTINUOUS
 10
336.130000
 20
380.000000
 40
2.000000
  0
LINE
  8
1
 62
7
  6
DASHDOT
 10
336.130000
 20
384.000000
 11
336.130000
 21
376.000000
  0
LINE
  8
1
 62
7
  6
DASHDOT
 10
332.130000
 20
380.000000
 11
340.130000
 21
380.000000
  0
CIRCLE
  8
1
 62
7
  6
CONTINUOUS
 10
336.130000
 20
355.000000
 40
1.650000
  0
CIRCLE
  8
1
 62
7
  6
CONTINUOUS
 10
336.130000
 20
355.000000
 40
2.000000
  0
LINE
  8
1
 62
7
  6
DASHDOT
 10
336.130000
 20
359.000000
 11
336.130000
 21
351.000000
  0
LINE
  8
1
 62
7
  6
DASHDOT
 10
332.130000
 20
355.000000
 11
340.130000
 21
355.000000
  0
CIRCLE
  8
1
 62
7
  6
CONTINUOUS
 10
336.130000
 20
405.000000
 40
1.650000
  0
CIRCLE
  8
1
 62
7
  6
CONTINUOUS
 10
336.130000
 20
405.000000
 40
2.000000
  0
LINE
  8
1
 62
7
  6
DASHDOT
 10
336.130000
 20
409.000000
 11
336.130000
 21
401.000000
  0
LINE
  8
1
 62
7
  6
DASHDOT
 10
332.130000
 20
405.000000
 11
340.130000
 21
405.000000
  0
CIRCLE
  8
1
 62
7
  6
CONTINUOUS
 10
336.130000
 20
255.000000
 40
1.650000
  0
CIRCLE
  8
1
 62
7
  6
CONTINUOUS
 10
336.130000
 20
255.000000
 40
2.000000
  0
LINE
  8
1
 62
7
  6
DASHDOT
 10
340.130000
 20
255.000000
 11
332.130000
 21
255.000000
  0
LINE
  8
1
 62
7
  6
DASHDOT
 10
336.130000
 20
259.000000
 11
336.130000
 21
251.000000
  0
CIRCLE
  8
1
 62
7
  6
CONTINUOUS
 10
336.130000
 20
230.000000
 40
1.650000
  0
CIRCLE
  8
1
 62
7
  6
CONTINUOUS
 10
336.130000
 20
230.000000
 40
2.000000
  0
LINE
  8
1
 62
7
  6
DASHDOT
 10
340.130000
 20
230.000000
 11
332.130000
 21
230.000000
  0
LINE
  8
1
 62
7
  6
DASHDOT
 10
336.130000
 20
234.000000
 11
336.130000
 21
226.000000
  0
CIRCLE
  8
1
 62
7
  6
CONTINUOUS
 10
336.130000
 20
205.000000
 40
1.650000
  0
CIRCLE
  8
1
 62
7
  6
CONTINUOUS
 10
336.130000
 20
205.000000
 40
2.000000
  0
LINE
  8
1
 62
7
  6
DASHDOT
 10
340.130000
 20
205.000000
 11
332.130000
 21
205.000000
  0
LINE
  8
1
 62
7
  6
DASHDOT
 10
336.130000
 20
209.000000
 11
336.130000
 21
201.000000
  0
CIRCLE
  8
1
 62
7
  6
CONTINUOUS
 10
336.130000
 20
330.000000
 40
1.650000
  0
CIRCLE
  8
1
 62
7
  6
CONTINUOUS
 10
336.130000
 20
330.000000
 40
2.000000
  0
LINE
  8
1
 62
7
  6
DASHDOT
 10
336.130000
 20
326.000000
 11
336.130000
 21
334.000000
  0
LINE
  8
1
 62
7
  6
DASHDOT
 10
332.130000
 20
330.000000
 11
340.130000
 21
330.000000
  0
CIRCLE
  8
1
 62
7
  6
CONTINUOUS
 10
336.130000
 20
280.000000
 40
1.650000
  0
CIRCLE
  8
1
 62
7
  6
CONTINUOUS
 10
336.130000
 20
280.000000
 40
2.000000
  0
LINE
  8
1
 62
7
  6
DASHDOT
 10
340.130000
 20
280.000000
 11
332.130000
 21
280.000000
  0
LINE
  8
1
 62
7
  6
DASHDOT
 10
336.130000
 20
276.000000
 11
336.130000
 21
284.000000
  0
CIRCLE
  8
1
 62
7
  6
CONTINUOUS
 10
211.130000
 20
430.000000
 40
1.650000
  0
CIRCLE
  8
1
 62
7
  6
CONTINUOUS
 10
211.130000
 20
430.000000
 40
2.000000
  0
LINE
  8
1
 62
7
  6
DASHDOT
 10
207.130000
 20
430.000000
 11
215.130000
 21
430.000000
  0
CIRCLE
  8
1
 62
7
  6
CONTINUOUS
 10
261.130000
 20
430.000000
 40
1.650000
  0
CIRCLE
  8
1
 62
7
  6
CONTINUOUS
 10
261.130000
 20
430.000000
 40
2.000000
  0
LINE
  8
1
 62
7
  6
DASHDOT
 10
261.130000
 20
434.000000
 11
261.130000
 21
426.000000
  0
LINE
  8
1
 62
7
  6
DASHDOT
 10
257.130000
 20
430.000000
 11
265.130000
 21
430.000000
  0
CIRCLE
  8
1
 62
7
  6
CONTINUOUS
 10
286.130000
 20
430.000000
 40
1.650000
  0
CIRCLE
  8
1
 62
7
  6
CONTINUOUS
 10
286.130000
 20
430.000000
 40
2.000000
  0
LINE
  8
1
 62
7
  6
DASHDOT
 10
286.130000
 20
434.000000
 11
286.130000
 21
426.000000
  0
LINE
  8
1
 62
7
  6
DASHDOT
 10
282.130000
 20
430.000000
 11
290.130000
 21
430.000000
  0
CIRCLE
  8
1
 62
7
  6
CONTINUOUS
 10
311.130000
 20
430.000000
 40
1.650000
  0
CIRCLE
  8
1
 62
7
  6
CONTINUOUS
 10
311.130000
 20
430.000000
 40
2.000000
  0
LINE
  8
1
 62
7
  6
DASHDOT
 10
311.130000
 20
434.000000
 11
311.130000
 21
426.000000
  0
LINE
  8
1
 62
7
  6
DASHDOT
 10
307.130000
 20
430.000000
 11
315.130000
 21
430.000000
  0
CIRCLE
  8
1
 62
7
  6
CONTINUOUS
 10
136.130000
 20
430.000000
 40
1.650000
  0
CIRCLE
  8
1
 62
7
  6
CONTINUOUS
 10
136.130000
 20
430.000000
 40
2.000000
  0
LINE
  8
1
 62
7
  6
DASHDOT
 10
132.130000
 20
430.000000
 11
140.130000
 21
430.000000
  0
LINE
  8
1
 62
7
  6
DASHDOT
 10
136.130000
 20
426.000000
 11
136.130000
 21
434.000000
  0
CIRCLE
  8
1
 62
7
  6
CONTINUOUS
 10
161.130000
 20
430.000000
 40
1.650000
  0
CIRCLE
  8
1
 62
7
  6
CONTINUOUS
 10
161.130000
 20
430.000000
 40
2.000000
  0
LINE
  8
1
 62
7
  6
DASHDOT
 10
157.130000
 20
430.000000
 11
165.130000
 21
430.000000
  0
LINE
  8
1
 62
7
  6
DASHDOT
 10
161.130000
 20
426.000000
 11
161.130000
 21
434.000000
  0
CIRCLE
  8
1
 62
7
  6
CONTINUOUS
 10
111.130000
 20
430.000000
 40
1.650000
  0
CIRCLE
  8
1
 62
7
  6
CONTINUOUS
 10
111.130000
 20
430.000000
 40
2.000000
  0
LINE
  8
1
 62
7
  6
DASHDOT
 10
107.130000
 20
430.000000
 11
115.130000
 21
430.000000
  0
LINE
  8
1
 62
7
  6
DASHDOT
 10
111.130000
 20
426.000000
 11
111.130000
 21
434.000000
  0
CIRCLE
  8
1
 62
7
  6
CONTINUOUS
 10
186.130000
 20
430.000000
 40
1.650000
  0
CIRCLE
  8
1
 62
7
  6
CONTINUOUS
 10
186.130000
 20
430.000000
 40
2.000000
  0
LINE
  8
1
 62
7
  6
DASHDOT
 10
190.130000
 20
430.000000
 11
182.130000
 21
430.000000
  0
LINE
  8
1
 62
7
  6
DASHDOT
 10
186.130000
 20
426.000000
 11
186.130000
 21
434.000000
  0
CIRCLE
  8
1
 62
7
  6
CONTINUOUS
 10
236.130000
 20
430.000000
 40
1.650000
  0
CIRCLE
  8
1
 62
7
  6
CONTINUOUS
 10
236.130000
 20
430.000000
 40
2.000000
  0
LINE
  8
1
 62
7
  6
DASHDOT
 10
236.130000
 20
434.000000
 11
236.130000
 21
426.000000
  0
LINE
  8
1
 62
7
  6
DASHDOT
 10
240.130000
 20
430.000000
 11
232.130000
 21
430.000000
  0
CIRCLE
  8
1
 62
7
  6
CONTINUOUS
 10
86.130000
 20
430.000000
 40
1.650000
  0
CIRCLE
  8
1
 62
7
  6
CONTINUOUS
 10
86.130000
 20
430.000000
 40
2.000000
  0
LINE
  8
1
 62
7
  6
DASHDOT
 10
82.130000
 20
430.000000
 11
90.130000
 21
430.000000
  0
LINE
  8
1
 62
7
  6
DASHDOT
 10
86.130000
 20
426.000000
 11
86.130000
 21
434.000000
  0
CIRCLE
  8
1
 62
7
  6
CONTINUOUS
 10
336.130000
 20
430.000000
 40
1.650000
  0
CIRCLE
  8
1
 62
7
  6
CONTINUOUS
 10
336.130000
 20
430.000000
 40
2.000000
  0
LINE
  8
1
 62
7
  6
DASHDOT
 10
336.130000
 20
434.000000
 11
336.130000
 21
426.000000
  0
LINE
  8
1
 62
7
  6
DASHDOT
 10
332.130000
 20
430.000000
 11
340.130000
 21
430.000000
  0
CIRCLE
  8
1
 62
7
  6
CONTINUOUS
 10
211.130000
 20
180.000000
 40
1.650000
  0
CIRCLE
  8
1
 62
7
  6
CONTINUOUS
 10
211.130000
 20
180.000000
 40
2.000000
  0
LINE
  8
1
 62
7
  6
DASHDOT
 10
215.130000
 20
180.000000
 11
207.130000
 21
180.000000
  0
CIRCLE
  8
1
 62
7
  6
CONTINUOUS
 10
286.130000
 20
180.000000
 40
1.650000
  0
CIRCLE
  8
1
 62
7
  6
CONTINUOUS
 10
286.130000
 20
180.000000
 40
2.000000
  0
LINE
  8
1
 62
7
  6
DASHDOT
 10
290.130000
 20
180.000000
 11
282.130000
 21
180.000000
  0
LINE
  8
1
 62
7
  6
DASHDOT
 10
286.130000
 20
184.000000
 11
286.130000
 21
176.000000
  0
CIRCLE
  8
1
 62
7
  6
CONTINUOUS
 10
261.130000
 20
180.000000
 40
1.650000
  0
CIRCLE
  8
1
 62
7
  6
CONTINUOUS
 10
261.130000
 20
180.000000
 40
2.000000
  0
LINE
  8
1
 62
7
  6
DASHDOT
 10
265.130000
 20
180.000000
 11
257.130000
 21
180.000000
  0
LINE
  8
1
 62
7
  6
DASHDOT
 10
261.130000
 20
184.000000
 11
261.130000
 21
176.000000
  0
CIRCLE
  8
1
 62
7
  6
CONTINUOUS
 10
311.130000
 20
180.000000
 40
1.650000
  0
CIRCLE
  8
1
 62
7
  6
CONTINUOUS
 10
311.130000
 20
180.000000
 40
2.000000
  0
LINE
  8
1
 62
7
  6
DASHDOT
 10
315.130000
 20
180.000000
 11
307.130000
 21
180.000000
  0
LINE
  8
1
 62
7
  6
DASHDOT
 10
311.130000
 20
184.000000
 11
311.130000
 21
176.000000
  0
CIRCLE
  8
1
 62
7
  6
CONTINUOUS
 10
161.130000
 20
180.000000
 40
1.650000
  0
CIRCLE
  8
1
 62
7
  6
CONTINUOUS
 10
161.130000
 20
180.000000
 40
2.000000
  0
LINE
  8
1
 62
7
  6
DASHDOT
 10
161.130000
 20
176.000000
 11
161.130000
 21
184.000000
  0
LINE
  8
1
 62
7
  6
DASHDOT
 10
165.130000
 20
180.000000
 11
157.130000
 21
180.000000
  0
CIRCLE
  8
1
 62
7
  6
CONTINUOUS
 10
136.130000
 20
180.000000
 40
1.650000
  0
CIRCLE
  8
1
 62
7
  6
CONTINUOUS
 10
136.130000
 20
180.000000
 40
2.000000
  0
LINE
  8
1
 62
7
  6
DASHDOT
 10
136.130000
 20
176.000000
 11
136.130000
 21
184.000000
  0
LINE
  8
1
 62
7
  6
DASHDOT
 10
140.130000
 20
180.000000
 11
132.130000
 21
180.000000
  0
CIRCLE
  8
1
 62
7
  6
CONTINUOUS
 10
111.130000
 20
180.000000
 40
1.650000
  0
CIRCLE
  8
1
 62
7
  6
CONTINUOUS
 10
111.130000
 20
180.000000
 40
2.000000
  0
LINE
  8
1
 62
7
  6
DASHDOT
 10
111.130000
 20
176.000000
 11
111.130000
 21
184.000000
  0
LINE
  8
1
 62
7
  6
DASHDOT
 10
115.130000
 20
180.000000
 11
107.130000
 21
180.000000
  0
CIRCLE
  8
1
 62
7
  6
CONTINUOUS
 10
186.130000
 20
180.000000
 40
1.650000
  0
CIRCLE
  8
1
 62
7
  6
CONTINUOUS
 10
186.130000
 20
180.000000
 40
2.000000
  0
LINE
  8
1
 62
7
  6
DASHDOT
 10
186.130000
 20
176.000000
 11
186.130000
 21
184.000000
  0
LINE
  8
1
 62
7
  6
DASHDOT
 10
182.130000
 20
180.000000
 11
190.130000
 21
180.000000
  0
CIRCLE
  8
1
 62
7
  6
CONTINUOUS
 10
236.130000
 20
180.000000
 40
1.650000
  0
CIRCLE
  8
1
 62
7
  6
CONTINUOUS
 10
236.130000
 20
180.000000
 40
2.000000
  0
LINE
  8
1
 62
7
  6
DASHDOT
 10
232.130000
 20
180.000000
 11
240.130000
 21
180.000000
  0
LINE
  8
1
 62
7
  6
DASHDOT
 10
236.130000
 20
184.000000
 11
236.130000
 21
176.000000
  0
CIRCLE
  8
1
 62
7
  6
CONTINUOUS
 10
86.130000
 20
180.000000
 40
1.650000
  0
CIRCLE
  8
1
 62
7
  6
CONTINUOUS
 10
86.130000
 20
180.000000
 40
2.000000
  0
LINE
  8
1
 62
7
  6
DASHDOT
 10
86.130000
 20
176.000000
 11
86.130000
 21
184.000000
  0
LINE
  8
1
 62
7
  6
DASHDOT
 10
90.130000
 20
180.000000
 11
82.130000
 21
180.000000
  0
CIRCLE
  8
1
 62
7
  6
CONTINUOUS
 10
336.130000
 20
180.000000
 40
1.650000
  0
CIRCLE
  8
1
 62
7
  6
CONTINUOUS
 10
336.130000
 20
180.000000
 40
2.000000
  0
LINE
  8
1
 62
7
  6
DASHDOT
 10
340.130000
 20
180.000000
 11
332.130000
 21
180.000000
  0
LINE
  8
1
 62
7
  6
DASHDOT
 10
336.130000
 20
184.000000
 11
336.130000
 21
176.000000
  0
LINE
  8
1
 62
7
  6
CONTINUOUS
 10
361.130000
 20
453.000000
 11
359.130000
 21
455.000000
  0
LINE
  8
1
 62
7
  6
CONTINUOUS
 10
361.130000
 20
157.000000
 11
361.130000
 21
453.000000
  0
LINE
  8
1
 62
7
  6
CONTINUOUS
 10
359.130000
 20
155.000000
 11
361.130000
 21
157.000000
  0
LINE
  8
1
 62
7
  6
CONTINUOUS
 10
63.130000
 20
155.000000
 11
359.130000
 21
155.000000
  0
LINE
  8
1
 62
7
  6
CONTINUOUS
 10
61.130000
 20
157.000000
 11
63.130000
 21
155.000000
  0
LINE
  8
1
 62
7
  6
CONTINUOUS
 10
359.130000
 20
455.000000
 11
63.130000
 21
455.000000
  0
LINE
  8
1
 62
7
  6
CONTINUOUS
 10
61.130000
 20
453.000000
 11
61.130000
 21
157.000000
  0
LINE
  8
1
 62
7
  6
CONTINUOUS
 10
63.130000
 20
455.000000
 11
61.130000
 21
453.000000
  0
TEXT
  8
1
 62
7
  6
CONTINUOUS
 10
716.607000
 20
78.500000
 40
7.000000
 41
0.595238
  1
ラボジャッキ用上面プレート
  7
KANJI
 50
0.000000
 51
0.000000
  0
TEXT
  8
1
 62
7
  6
CONTINUOUS
 10
718.000000
 20
94.500000
 40
7.000000
 41
0.571429
  1
TPL-300
  7
KANJI
 50
0.000000
 51
0.000000
  0
ENDSEC
  0
EOF
