  0
SECTION
  2
HEADER
  9
$ACADVER
  1
AC1004
  9
$INSBASE
 10
0.000000
 20
0.000000
  9
$EXTMIN
 10
0.000000
 20
0.000000
  9
$EXTMAX
 10
420.000000
 20
297.000000
  9
$LIMMIN
 10
0.000000
 20
0.000000
  9
$LIMMAX
 10
420.000000
 20
297.000000
  9
$VIEWCTR
 10
210.000000
 20
148.500000
  9
$VIEWSIZE
 40
297.000000
  9
$PEXTMIN
 10
0.000000
 20
0.000000
 30
0.000000
  9
$PEXTMAX
 10
420.000000
 20
297.000000
 30
0.000000
  9
$SNAPMODE
 70
     0
  9
$SNAPUNIT
 10
1.000000
 20
1.000000
  9
$SNAPBASE
 10
0.000000
 20
0.000000
  9
$SNAPANG
 50
0.000000
  9
$SNAPISOPAIR
 70
     0
  9
$SNAPSTYLE
 70
     0
  9
$GRIDMODE
 70
     0
  9
$GRIDUNIT
 10
0.000000
 20
0.000000
  9
$ORTHOMODE
 70
     0
  9
$REGENMODE
 70
     1
  9
$FILLMODE
 70
     1
  9
$QTEXTMODE
 70
     0
  9
$DRAGMODE
 70
     2
  9
$LTSCALE
 40
0.250000
  9
$OSMODE
 70
     0
  9
$ATTMODE
 70
     1
  9
$TEXTSIZE
 40
3.500000
  9
$TRACEWID
 40
0.050000
  9
$TEXTSTYLE
  7
STANDARD
  9
$CLAYER
  8
0
  9
$CELTYPE
  6
BYLAYER
  9
$CECOLOR
 62
   256
  9
$DIMSCALE
 40
1.000000
  9
$DIMASZ
 40
1.000000
  9
$DIMEXO
 40
0.000000
  9
$DIMDLI
 40
0.500000
  9
$DIMRND
 40
0.000000
  9
$DIMDLE
 40
0.000000
  9
$DIMEXE
 40
0.000000
  9
$DIMTP
 40
0.000000
  9
$DIMTM
 40
0.000000
  9
$DIMTXT
 40
3.500000
  9
$DIMCEN
 40
0.000000
  9
$DIMTSZ
 40
0.000000
  9
$DIMTOL
 70
     0
  9
$DIMLIM
 70
     0
  9
$DIMTIH
 70
     1
  9
$DIMTOH
 70
     1
  9
$DIMSE1
 70
     0
  9
$DIMSE2
 70
     0
  9
$DIMTAD
 70
     0
  9
$DIMZIN
 70
     0
  9
$DIMBLK
  1

  9
$DIMASO
 70
     0
  9
$DIMSHO
 70
     0
  9
$DIMPOST
  1

  9
$DIMAPOST
  1

  9
$DIMALT
 70
     0
  9
$DIMALTD
 70
     0
  9
$DIMALTF
 40
25.400000
  9
$DIMLFAC
 40
1.000000
  9
$DIMTOFL
 70
     0
  9
$DIMTVP
 40
0.000000
  9
$DIMTIX
 70
     0
  9
$DIMSOXD
 70
     0
  9
$DIMSAH
 70
     0
  9
$DIMBLKL
  1

  9
$DIMBLKR
  1

  9
$LUNITS
 70
     2
  9
$LUPREC
 70
     2
  9
$AXISMODE
 70
     0
  9
$AXISUNIT
 10
1.000000
 20
1.000000
  9
$SKETCHINC
 40
0.000000
  9
$FILLETRAD
 40
0.000000
  9
$AUNITS
 70
     1
  9
$AUPREC
 70
     2
  9
$MENU
  1
ACAD
  9
$ELEVATION
 40
0.000000
  9
$THICKNESS
 40
0.000000
  9
$VIEWDIR
 10
0.000000
 20
0.000000
 30
1.000000
  9
$LIMCHECK
 70
     1
  9
$BLIPMODE
 70
     1
  9
$CHAMFERA
 40
0.000000
  9
$CHAMFERB
 40
0.000000
  9
$FASTZOOM
 70
     1
  9
$SKPOLY
 70
     0
  9
$TDCREATE
 40
0.000000
  9
$TDUPDATE
 40
0.000000
  9
$TDINDWG
 40
0.000000
  9
$TDUSRTIMER
 40
0.000000
  9
$USRTIMER
 70
     1
  9
$ANGBASE
 50
0.000000
  9
$ANGDIR
 70
     0
  9
$PDMODE
 70
     0
  9
$PDSIZE
 40
0.000000
  9
$PLINEWID
 40
0.000000
  9
$COORDS
 70
     2
  9
$USERI1
 70
     0
  9
$USERI2
 70
     0
  9
$USERI3
 70
     0
  9
$USERI4
 70
     0
  9
$USERI5
 70
     0
  9
$USERR1
 40
0.000000
  9
$USERR2
 40
0.000000
  9
$USERR3
 40
0.000000
  9
$USERR4
 40
0.000000
  9
$USERR5
 40
0.000000
  0
ENDSEC
  0
SECTION
  2
TABLES
  0
TABLE
  2
LTYPE
 70
     5
  0
LTYPE
  2
CONTINUOUS
 70
    64
  3
Solid line
 72
    65
 73
     0
 40
0.0
  0
LTYPE
  2
HIDDEN
 70
    64
  3
------------------------
 72
    65
 73
     2
 40
12.6
 49
8.4
 49
-4.2
  0
LTYPE
  2
DOT
 70
    64
  3
････････････････････････
 72
    65
 73
     2
 40
8.0
 49
6.0
 49
-2.0
  0
LTYPE
  2
DASHDOT
 70
    64
  3
--･--･--･--･--･--･--･--
 72
    65
 73
     4
 40
50.5
 49
30.0
 49
-9.0
 49
2.5
 49
-9.0
  0
LTYPE
  2
DIVIDE
 70
    64
  3
--･･--･･--･･--･･--･･--
 72
    65
 73
     6
 40
58.0
 49
30.0
 49
-9.0
 49
2.5
 49
-5.0
 49
2.5
 49
-9.0
  0
LTYPE
  2
ACAD_ISO06W100
 70
    64
  3
____ ... ____ ... ____
 72
    65
 73
     8
 40
37.5
 49
24.0
 49
-3.0
 49
0.5
 49
-3.0
 49
0.5
 49
-3.0
 49
0.5
 49
-3.0
  0
LTYPE
  2
ACAD_ISO14W100
 70
    64
  3
__ . . . __ . . . __ . . . 
 72
    65
 73
     8
 40
25.5
 49
12.0
 49
-3.0
 49
0.5
 49
-3.0
 49
0.5
 49
-3.0
 49
0.5
 49
-3.0
  0
ENDTAB
  0
TABLE
  2
LAYER
 70
1
  0
LAYER
  2
1
 70
64
 62
7
  6
CONTINUOUS
  0
ENDTAB
  0
TABLE
  2
STYLE
 70
     2
  0
STYLE
  2
STANDARD
 70
    64
 40
0.0
 41
1.0
 50
0.0
 71
     0
 42
0.2
  3
TXT
  4

  0
STYLE
  2
KANJI
 70
    64
 40
0.0
 41
1.0
 50
0.0
 71
     0
 42
0.2
  3
TXT
  4
BIGFONT
  0
ENDTAB
  0
TABLE
  2
VIEW
 70
     0
  0
ENDTAB
  0
ENDSEC
  0
SECTION
  2
BLOCKS
  0
ENDSEC
  0
SECTION
  2
ENTITIES
  0
LINE
  8
1
 62
7
  6
DASHDOT
 10
225.000000
 20
155.000000
 11
205.000000
 21
155.000000
  0
LINE
  8
1
 62
7
  6
HIDDEN
 10
210.000000
 20
176.000000
 11
214.500000
 21
176.000000
  0
LINE
  8
1
 62
7
  6
HIDDEN
 10
214.500000
 20
177.750000
 11
220.000000
 21
177.750000
  0
LINE
  8
1
 62
7
  6
HIDDEN
 10
214.500000
 20
184.000000
 11
210.000000
 21
184.000000
  0
LINE
  8
1
 62
7
  6
HIDDEN
 10
220.000000
 20
182.250000
 11
214.500000
 21
182.250000
  0
LINE
  8
1
 62
7
  6
HIDDEN
 10
214.500000
 20
176.000000
 11
214.500000
 21
184.000000
  0
LINE
  8
1
 62
7
  6
DASHDOT
 10
208.000000
 20
180.000000
 11
222.000000
 21
180.000000
  0
LINE
  8
1
 62
7
  6
HIDDEN
 10
210.000000
 20
134.000000
 11
214.500000
 21
134.000000
  0
LINE
  8
1
 62
7
  6
HIDDEN
 10
214.500000
 20
132.250000
 11
220.000000
 21
132.250000
  0
LINE
  8
1
 62
7
  6
HIDDEN
 10
214.500000
 20
126.000000
 11
210.000000
 21
126.000000
  0
LINE
  8
1
 62
7
  6
HIDDEN
 10
220.000000
 20
127.750000
 11
214.500000
 21
127.750000
  0
LINE
  8
1
 62
7
  6
HIDDEN
 10
214.500000
 20
134.000000
 11
214.500000
 21
126.000000
  0
LINE
  8
1
 62
7
  6
DASHDOT
 10
208.000000
 20
130.000000
 11
222.000000
 21
130.000000
  0
LINE
  8
1
 62
7
  6
HIDDEN
 10
210.000000
 20
157.000000
 11
220.000000
 21
157.000000
  0
LINE
  8
1
 62
7
  6
HIDDEN
 10
220.000000
 20
153.000000
 11
210.000000
 21
153.000000
  0
LINE
  8
1
 62
7
  6
HIDDEN
 10
210.000000
 20
156.650000
 11
220.000000
 21
156.650000
  0
LINE
  8
1
 62
7
  6
HIDDEN
 10
220.000000
 20
153.350000
 11
210.000000
 21
153.350000
  0
LINE
  8
1
 62
7
  6
DASHDOT
 10
208.000000
 20
205.000000
 11
222.000000
 21
205.000000
  0
LINE
  8
1
 62
7
  6
HIDDEN
 10
210.000000
 20
207.000000
 11
220.000000
 21
207.000000
  0
LINE
  8
1
 62
7
  6
HIDDEN
 10
220.000000
 20
203.000000
 11
210.000000
 21
203.000000
  0
LINE
  8
1
 62
7
  6
HIDDEN
 10
210.000000
 20
206.650000
 11
220.000000
 21
206.650000
  0
LINE
  8
1
 62
7
  6
HIDDEN
 10
220.000000
 20
203.350000
 11
210.000000
 21
203.350000
  0
LINE
  8
1
 62
7
  6
DASHDOT
 10
208.000000
 20
105.000000
 11
222.000000
 21
105.000000
  0
LINE
  8
1
 62
7
  6
HIDDEN
 10
210.000000
 20
103.000000
 11
220.000000
 21
103.000000
  0
LINE
  8
1
 62
7
  6
HIDDEN
 10
220.000000
 20
107.000000
 11
210.000000
 21
107.000000
  0
LINE
  8
1
 62
7
  6
HIDDEN
 10
210.000000
 20
103.350000
 11
220.000000
 21
103.350000
  0
LINE
  8
1
 62
7
  6
HIDDEN
 10
220.000000
 20
106.650000
 11
210.000000
 21
106.650000
  0
LINE
  8
1
 62
7
  6
CONTINUOUS
 10
220.000000
 20
214.500000
 11
219.500000
 21
215.000000
  0
LINE
  8
1
 62
7
  6
CONTINUOUS
 10
219.500000
 20
215.000000
 11
210.500000
 21
215.000000
  0
LINE
  8
1
 62
7
  6
CONTINUOUS
 10
210.000000
 20
214.500000
 11
210.500000
 21
215.000000
  0
LINE
  8
1
 62
7
  6
CONTINUOUS
 10
210.000000
 20
214.500000
 11
210.000000
 21
95.500000
  0
LINE
  8
1
 62
7
  6
CONTINUOUS
 10
210.500000
 20
95.000000
 11
210.000000
 21
95.500000
  0
LINE
  8
1
 62
7
  6
CONTINUOUS
 10
220.000000
 20
95.500000
 11
220.000000
 21
214.500000
  0
LINE
  8
1
 62
7
  6
CONTINUOUS
 10
210.500000
 20
95.000000
 11
219.500000
 21
95.000000
  0
LINE
  8
1
 62
7
  6
CONTINUOUS
 10
220.000000
 20
95.500000
 11
219.500000
 21
95.000000
  0
LINE
  8
1
 62
7
  6
CONTINUOUS
 10
317.000000
 20
53.000000
 11
405.000000
 21
53.000000
  0
LINE
  8
1
 62
7
  6
CONTINUOUS
 10
317.000000
 20
53.000000
 11
317.000000
 21
17.000000
  0
LINE
  8
1
 62
7
  6
CONTINUOUS
 10
317.000000
 20
43.000000
 11
345.000000
 21
43.000000
  0
LINE
  8
1
 62
7
  6
CONTINUOUS
 10
317.000000
 20
29.000000
 11
405.000000
 21
29.000000
  0
TEXT
  8
1
 62
7
  6
CONTINUOUS
 10
385.500000
 20
19.500000
 40
3.000000
 41
1.000000
  1
1/1
  7
KANJI
 50
0.000000
 51
0.000000
  0
TEXT
  8
1
 62
7
  6
CONTINUOUS
 10
398.500000
 20
19.500000
 40
3.000000
 41
1.000000
  1
-
  7
KANJI
 50
0.000000
 51
0.000000
  0
TEXT
  8
1
 62
7
  6
CONTINUOUS
 10
329.500000
 20
19.500000
 40
3.000000
 41
0.578703
  1
－
  7
KANJI
 50
0.000000
 51
0.000000
  0
TEXT
  8
1
 62
7
  6
CONTINUOUS
 10
331.377248
 20
44.500000
 40
3.000000
 41
0.578703
  1
－
  7
KANJI
 50
0.000000
 51
0.000000
  0
LINE
  8
1
 62
7
  6
CONTINUOUS
 10
0.000000
 20
0.000000
 11
10.000000
 21
0.000000
  0
LINE
  8
1
 62
7
  6
CONTINUOUS
 10
0.000000
 20
0.000000
 11
0.000000
 21
10.000000
  0
LINE
  8
1
 62
7
  6
CONTINUOUS
 10
15.000000
 20
284.000000
 11
405.000000
 21
284.000000
  0
LINE
  8
1
 62
7
  6
CONTINUOUS
 10
15.000000
 20
17.000000
 11
405.000000
 21
17.000000
  0
LINE
  8
1
 62
7
  6
CONTINUOUS
 10
15.000000
 20
17.000000
 11
15.000000
 21
284.000000
  0
LINE
  8
1
 62
7
  6
CONTINUOUS
 10
15.000000
 20
17.000000
 11
89.000000
 21
17.000000
  0
LINE
  8
1
 62
7
  6
CONTINUOUS
 10
15.000000
 20
17.000000
 11
15.000000
 21
60.800000
  0
TEXT
  8
1
 62
7
  6
CONTINUOUS
 10
45.900000
 20
12.400000
 40
3.200000
 41
1.000000
  1
1
  7
KANJI
 50
0.000000
 51
0.000000
  0
LINE
  8
1
 62
7
  6
CONTINUOUS
 10
80.000000
 20
17.000000
 11
80.000000
 21
14.000000
  0
TEXT
  8
1
 62
7
  6
CONTINUOUS
 10
10.900000
 20
37.650000
 40
3.200000
 41
1.000000
  1
F
  7
KANJI
 50
0.000000
 51
0.000000
  0
LINE
  8
1
 62
7
  6
CONTINUOUS
 10
15.000000
 20
61.500000
 11
12.000000
 21
61.500000
  0
TEXT
  8
1
 62
7
  6
CONTINUOUS
 10
10.900000
 20
82.150000
 40
3.200000
 41
1.000000
  1
E
  7
KANJI
 50
0.000000
 51
0.000000
  0
LINE
  8
1
 62
7
  6
CONTINUOUS
 10
15.000000
 20
106.000000
 11
12.000000
 21
106.000000
  0
TEXT
  8
1
 62
7
  6
CONTINUOUS
 10
110.900000
 20
12.400000
 40
3.200000
 41
1.000000
  1
2
  7
KANJI
 50
0.000000
 51
0.000000
  0
LINE
  8
1
 62
7
  6
CONTINUOUS
 10
145.000000
 20
17.000000
 11
145.000000
 21
14.000000
  0
TEXT
  8
1
 62
7
  6
CONTINUOUS
 10
175.900000
 20
12.400000
 40
3.200000
 41
1.000000
  1
3
  7
KANJI
 50
0.000000
 51
0.000000
  0
TEXT
  8
1
 62
7
  6
CONTINUOUS
 10
10.900000
 20
215.650000
 40
3.200000
 41
1.000000
  1
B
  7
KANJI
 50
0.000000
 51
0.000000
  0
TEXT
  8
1
 62
7
  6
CONTINUOUS
 10
10.900000
 20
126.650000
 40
3.200000
 41
1.000000
  1
D
  7
KANJI
 50
0.000000
 51
0.000000
  0
LINE
  8
1
 62
7
  6
CONTINUOUS
 10
12.000000
 20
150.500000
 11
18.000000
 21
150.500000
  0
LINE
  8
1
 62
7
  6
CONTINUOUS
 10
18.000000
 20
150.500000
 11
12.000000
 21
150.500000
  0
TEXT
  8
1
 62
7
  6
CONTINUOUS
 10
10.900000
 20
171.150000
 40
3.200000
 41
1.000000
  1
C
  7
KANJI
 50
0.000000
 51
0.000000
  0
LINE
  8
1
 62
7
  6
CONTINUOUS
 10
15.000000
 20
195.000000
 11
12.000000
 21
195.000000
  0
LINE
  8
1
 62
7
  6
CONTINUOUS
 10
15.000000
 20
239.500000
 11
12.000000
 21
239.500000
  0
TEXT
  8
1
 62
7
  6
CONTINUOUS
 10
10.900000
 20
260.150000
 40
3.200000
 41
1.000000
  1
A
  7
KANJI
 50
0.000000
 51
0.000000
  0
TEXT
  8
1
 62
7
  6
CONTINUOUS
 10
45.900000
 20
285.400000
 40
3.200000
 41
1.000000
  1
1
  7
KANJI
 50
0.000000
 51
0.000000
  0
LINE
  8
1
 62
7
  6
CONTINUOUS
 10
80.000000
 20
284.000000
 11
80.000000
 21
287.000000
  0
TEXT
  8
1
 62
7
  6
CONTINUOUS
 10
110.900000
 20
285.400000
 40
3.200000
 41
1.000000
  1
2
  7
KANJI
 50
0.000000
 51
0.000000
  0
LINE
  8
1
 62
7
  6
CONTINUOUS
 10
145.000000
 20
284.000000
 11
145.000000
 21
287.000000
  0
TEXT
  8
1
 62
7
  6
CONTINUOUS
 10
175.900000
 20
285.400000
 40
3.200000
 41
1.000000
  1
3
  7
KANJI
 50
0.000000
 51
0.000000
  0
LINE
  8
1
 62
7
  6
CONTINUOUS
 10
210.000000
 20
281.000000
 11
210.000000
 21
287.000000
  0
LINE
  8
1
 62
7
  6
CONTINUOUS
 10
405.000000
 20
17.000000
 11
405.000000
 21
284.000000
  0
TEXT
  8
1
 62
7
  6
CONTINUOUS
 10
386.640000
 20
25.600000
 40
2.800000
 41
0.600000
  1
Page
  7
KANJI
 50
0.000000
 51
0.000000
  0
LINE
  8
1
 62
7
  6
CONTINUOUS
 10
317.000000
 20
25.000000
 11
405.000000
 21
25.000000
  0
LINE
  8
1
 62
7
  6
CONTINUOUS
 10
357.000000
 20
37.000000
 11
405.000000
 21
37.000000
  0
LINE
  8
1
 62
7
  6
CONTINUOUS
 10
345.000000
 20
45.000000
 11
405.000000
 21
45.000000
  0
LINE
  8
1
 62
7
  6
CONTINUOUS
 10
385.000000
 20
17.000000
 11
385.000000
 21
29.000000
  0
LINE
  8
1
 62
7
  6
CONTINUOUS
 10
345.000000
 20
17.000000
 11
345.000000
 21
53.000000
  0
TEXT
  8
1
 62
7
  6
CONTINUOUS
 10
240.900000
 20
12.400000
 40
3.200000
 41
1.000000
  1
4
  7
KANJI
 50
0.000000
 51
0.000000
  0
LINE
  8
1
 62
7
  6
CONTINUOUS
 10
275.000000
 20
17.000000
 11
275.000000
 21
14.000000
  0
TEXT
  8
1
 62
7
  6
CONTINUOUS
 10
305.900000
 20
12.400000
 40
3.200000
 41
1.000000
  1
5
  7
KANJI
 50
0.000000
 51
0.000000
  0
LINE
  8
1
 62
7
  6
CONTINUOUS
 10
340.000000
 20
17.000000
 11
340.000000
 21
14.000000
  0
TEXT
  8
1
 62
7
  6
CONTINUOUS
 10
370.900000
 20
12.400000
 40
3.200000
 41
1.000000
  1
6
  7
KANJI
 50
0.000000
 51
0.000000
  0
TEXT
  8
1
 62
7
  6
CONTINUOUS
 10
345.120000
 20
47.600000
 40
2.800000
 41
0.600000
  1
PRODUCT
  7
KANJI
 50
0.000000
 51
0.000000
  0
TEXT
  8
1
 62
7
  6
CONTINUOUS
 10
346.200000
 20
35.400000
 40
3.200000
 41
0.600000
  1
TITLE
  7
KANJI
 50
0.000000
 51
0.000000
  0
TEXT
  8
1
 62
7
  6
CONTINUOUS
 10
321.760000
 20
25.600000
 40
2.800000
 41
0.752539
  1
Product No.
  7
KANJI
 50
0.000000
 51
0.000000
  0
LINE
  8
1
 62
7
  6
DASHDOT
 10
322.000000
 20
34.500000
 11
330.000000
 21
34.500000
  0
CIRCLE
  8
1
 62
7
  6
CONTINUOUS
 10
326.000000
 20
34.500000
 40
2.000000
  0
CIRCLE
  8
1
 62
7
  6
CONTINUOUS
 10
326.000000
 20
34.500000
 40
3.000000
  0
LINE
  8
1
 62
7
  6
DASHDOT
 10
326.000000
 20
30.500000
 11
326.000000
 21
38.500000
  0
TEXT
  8
1
 62
7
  6
CONTINUOUS
 10
318.000000
 20
39.600000
 40
2.400000
 41
0.600000
  1
PROJECTION
  7
KANJI
 50
0.000000
 51
0.000000
  0
LINE
  8
1
 62
7
  6
CONTINUOUS
 10
334.000000
 20
32.500000
 11
334.000000
 21
36.500000
  0
LINE
  8
1
 62
7
  6
CONTINUOUS
 10
334.000000
 20
36.500000
 11
339.000000
 21
37.500000
  0
LINE
  8
1
 62
7
  6
DASHDOT
 10
333.000000
 20
34.500000
 11
340.000000
 21
34.500000
  0
LINE
  8
1
 62
7
  6
CONTINUOUS
 10
339.000000
 20
31.500000
 11
339.000000
 21
37.500000
  0
LINE
  8
1
 62
7
  6
CONTINUOUS
 10
334.000000
 20
32.500000
 11
339.000000
 21
31.500000
  0
TEXT
  8
1
 62
7
  6
CONTINUOUS
 10
318.000000
 20
49.600000
 40
2.400000
 41
0.600000
  1
QUANTITY
  7
KANJI
 50
0.000000
 51
0.000000
  0
LINE
  8
1
 62
7
  6
CONTINUOUS
 10
357.000000
 20
29.000000
 11
357.000000
 21
53.000000
  0
TEXT
  8
1
 62
7
  6
CONTINUOUS
 10
355.760000
 20
25.600000
 40
2.800000
 41
0.752539
  1
Drawing No.
  7
KANJI
 50
0.000000
 51
0.000000
  0
LINE
  8
1
 62
7
  6
CONTINUOUS
 10
395.000000
 20
17.000000
 11
395.000000
 21
29.000000
  0
TEXT
  8
1
 62
7
  6
CONTINUOUS
 10
405.900000
 20
37.650000
 40
3.200000
 41
1.000000
  1
F
  7
KANJI
 50
0.000000
 51
0.000000
  0
TEXT
  8
1
 62
7
  6
CONTINUOUS
 10
396.640000
 20
25.600000
 40
2.800000
 41
0.823046
  1
Rev.
  7
KANJI
 50
0.000000
 51
0.000000
  0
LINE
  8
1
 62
7
  6
CONTINUOUS
 10
405.000000
 20
61.500000
 11
408.000000
 21
61.500000
  0
TEXT
  8
1
 62
7
  6
CONTINUOUS
 10
405.900000
 20
82.150000
 40
3.200000
 41
1.000000
  1
E
  7
KANJI
 50
0.000000
 51
0.000000
  0
LINE
  8
1
 62
7
  6
CONTINUOUS
 10
405.000000
 20
106.000000
 11
408.000000
 21
106.000000
  0
TEXT
  8
1
 62
7
  6
CONTINUOUS
 10
240.900000
 20
285.400000
 40
3.200000
 41
1.000000
  1
4
  7
KANJI
 50
0.000000
 51
0.000000
  0
LINE
  8
1
 62
7
  6
CONTINUOUS
 10
275.000000
 20
284.000000
 11
275.000000
 21
287.000000
  0
TEXT
  8
1
 62
7
  6
CONTINUOUS
 10
305.900000
 20
285.400000
 40
3.200000
 41
1.000000
  1
5
  7
KANJI
 50
0.000000
 51
0.000000
  0
LINE
  8
1
 62
7
  6
CONTINUOUS
 10
340.000000
 20
284.000000
 11
340.000000
 21
287.000000
  0
TEXT
  8
1
 62
7
  6
CONTINUOUS
 10
370.900000
 20
285.400000
 40
3.200000
 41
1.000000
  1
6
  7
KANJI
 50
0.000000
 51
0.000000
  0
TEXT
  8
1
 62
7
  6
CONTINUOUS
 10
405.900000
 20
215.650000
 40
3.200000
 41
1.000000
  1
B
  7
KANJI
 50
0.000000
 51
0.000000
  0
TEXT
  8
1
 62
7
  6
CONTINUOUS
 10
405.900000
 20
126.650000
 40
3.200000
 41
1.000000
  1
D
  7
KANJI
 50
0.000000
 51
0.000000
  0
LINE
  8
1
 62
7
  6
CONTINUOUS
 10
402.000000
 20
150.500000
 11
408.000000
 21
150.500000
  0
TEXT
  8
1
 62
7
  6
CONTINUOUS
 10
405.900000
 20
171.150000
 40
3.200000
 41
1.000000
  1
C
  7
KANJI
 50
0.000000
 51
0.000000
  0
LINE
  8
1
 62
7
  6
CONTINUOUS
 10
405.000000
 20
195.000000
 11
408.000000
 21
195.000000
  0
LINE
  8
1
 62
7
  6
CONTINUOUS
 10
405.000000
 20
239.500000
 11
408.000000
 21
239.500000
  0
TEXT
  8
1
 62
7
  6
CONTINUOUS
 10
405.900000
 20
260.150000
 40
3.200000
 41
1.000000
  1
A
  7
KANJI
 50
0.000000
 51
0.000000
  0
LINE
  8
1
 62
7
  6
CONTINUOUS
 10
410.000000
 20
-0.032706
 11
420.000000
 21
-0.032706
  0
LINE
  8
1
 62
7
  6
CONTINUOUS
 10
420.000000
 20
-0.032706
 11
420.000000
 21
9.967294
  0
LINE
  8
1
 62
7
  6
CONTINUOUS
 10
0.000000
 20
297.000000
 11
10.000000
 21
297.000000
  0
LINE
  8
1
 62
7
  6
CONTINUOUS
 10
0.000000
 20
287.000000
 11
0.000000
 21
297.000000
  0
LINE
  8
1
 62
7
  6
CONTINUOUS
 10
410.000000
 20
297.000000
 11
420.000000
 21
297.000000
  0
LINE
  8
1
 62
7
  6
CONTINUOUS
 10
420.000000
 20
286.967294
 11
420.000000
 21
297.000000
  0
TEXT
  8
1
 62
7
  6
CONTINUOUS
 10
359.000000
 20
47.250000
 40
3.500000
 41
0.500000
  1
TPL-120
  7
KANJI
 50
0.000000
 51
0.000000
  0
LINE
  8
1
 62
7
  6
DASHDOT
 10
314.707000
 20
220.000000
 11
314.707000
 21
90.000000
  0
LINE
  8
1
 62
7
  6
DASHDOT
 10
249.707000
 20
155.000000
 11
379.707000
 21
155.000000
  0
CIRCLE
  8
1
 62
7
  6
CONTINUOUS
 10
339.707000
 20
180.000000
 40
2.250000
  0
LINE
  8
1
 62
7
  6
DASHDOT
 10
345.707000
 20
180.000000
 11
333.707000
 21
180.000000
  0
LINE
  8
1
 62
7
  6
DASHDOT
 10
339.707000
 20
174.000000
 11
339.707000
 21
186.000000
  0
CIRCLE
  8
1
 62
7
  6
CONTINUOUS
 10
364.707000
 20
180.000000
 40
1.650000
  0
CIRCLE
  8
1
 62
7
  6
CONTINUOUS
 10
364.707000
 20
180.000000
 40
2.000000
  0
LINE
  8
1
 62
7
  6
DASHDOT
 10
368.707000
 20
180.000000
 11
360.707000
 21
180.000000
  0
LINE
  8
1
 62
7
  6
DASHDOT
 10
364.707000
 20
176.000000
 11
364.707000
 21
184.000000
  0
CIRCLE
  8
1
 62
7
  6
CONTINUOUS
 10
364.707000
 20
205.000000
 40
1.650000
  0
CIRCLE
  8
1
 62
7
  6
CONTINUOUS
 10
364.707000
 20
205.000000
 40
2.000000
  0
LINE
  8
1
 62
7
  6
DASHDOT
 10
368.707000
 20
205.000000
 11
360.707000
 21
205.000000
  0
LINE
  8
1
 62
7
  6
DASHDOT
 10
364.707000
 20
201.000000
 11
364.707000
 21
209.000000
  0
CIRCLE
  8
1
 62
7
  6
CONTINUOUS
 10
339.707000
 20
205.000000
 40
1.650000
  0
CIRCLE
  8
1
 62
7
  6
CONTINUOUS
 10
339.707000
 20
205.000000
 40
2.000000
  0
LINE
  8
1
 62
7
  6
DASHDOT
 10
343.707000
 20
205.000000
 11
335.707000
 21
205.000000
  0
LINE
  8
1
 62
7
  6
DASHDOT
 10
339.707000
 20
201.000000
 11
339.707000
 21
209.000000
  0
CIRCLE
  8
1
 62
7
  6
CONTINUOUS
 10
314.707000
 20
205.000000
 40
1.650000
  0
CIRCLE
  8
1
 62
7
  6
CONTINUOUS
 10
314.707000
 20
205.000000
 40
2.000000
  0
LINE
  8
1
 62
7
  6
DASHDOT
 10
318.707000
 20
205.000000
 11
310.707000
 21
205.000000
  0
CIRCLE
  8
1
 62
7
  6
CONTINUOUS
 10
314.707000
 20
180.000000
 40
1.650000
  0
CIRCLE
  8
1
 62
7
  6
CONTINUOUS
 10
314.707000
 20
180.000000
 40
2.000000
  0
LINE
  8
1
 62
7
  6
DASHDOT
 10
318.707000
 20
180.000000
 11
310.707000
 21
180.000000
  0
CIRCLE
  8
1
 62
7
  6
CONTINUOUS
 10
339.707000
 20
130.000000
 40
2.250000
  0
LINE
  8
1
 62
7
  6
DASHDOT
 10
339.707000
 20
124.000000
 11
339.707000
 21
136.000000
  0
LINE
  8
1
 62
7
  6
DASHDOT
 10
333.707000
 20
130.000000
 11
345.707000
 21
130.000000
  0
CIRCLE
  8
1
 62
7
  6
CONTINUOUS
 10
339.707000
 20
105.000000
 40
1.650000
  0
CIRCLE
  8
1
 62
7
  6
CONTINUOUS
 10
339.707000
 20
105.000000
 40
2.000000
  0
LINE
  8
1
 62
7
  6
DASHDOT
 10
339.707000
 20
101.000000
 11
339.707000
 21
109.000000
  0
LINE
  8
1
 62
7
  6
DASHDOT
 10
335.707000
 20
105.000000
 11
343.707000
 21
105.000000
  0
CIRCLE
  8
1
 62
7
  6
CONTINUOUS
 10
364.707000
 20
105.000000
 40
1.650000
  0
CIRCLE
  8
1
 62
7
  6
CONTINUOUS
 10
364.707000
 20
105.000000
 40
2.000000
  0
LINE
  8
1
 62
7
  6
DASHDOT
 10
364.707000
 20
101.000000
 11
364.707000
 21
109.000000
  0
LINE
  8
1
 62
7
  6
DASHDOT
 10
360.707000
 20
105.000000
 11
368.707000
 21
105.000000
  0
CIRCLE
  8
1
 62
7
  6
CONTINUOUS
 10
364.707000
 20
130.000000
 40
1.650000
  0
CIRCLE
  8
1
 62
7
  6
CONTINUOUS
 10
364.707000
 20
130.000000
 40
2.000000
  0
LINE
  8
1
 62
7
  6
DASHDOT
 10
364.707000
 20
126.000000
 11
364.707000
 21
134.000000
  0
LINE
  8
1
 62
7
  6
DASHDOT
 10
360.707000
 20
130.000000
 11
368.707000
 21
130.000000
  0
CIRCLE
  8
1
 62
7
  6
CONTINUOUS
 10
364.707000
 20
155.000000
 40
1.650000
  0
CIRCLE
  8
1
 62
7
  6
CONTINUOUS
 10
364.707000
 20
155.000000
 40
2.000000
  0
LINE
  8
1
 62
7
  6
DASHDOT
 10
364.707000
 20
151.000000
 11
364.707000
 21
159.000000
  0
CIRCLE
  8
1
 62
7
  6
CONTINUOUS
 10
339.707000
 20
155.000000
 40
1.650000
  0
CIRCLE
  8
1
 62
7
  6
CONTINUOUS
 10
339.707000
 20
155.000000
 40
2.000000
  0
LINE
  8
1
 62
7
  6
DASHDOT
 10
339.707000
 20
151.000000
 11
339.707000
 21
159.000000
  0
CIRCLE
  8
1
 62
7
  6
CONTINUOUS
 10
289.707000
 20
130.000000
 40
2.250000
  0
LINE
  8
1
 62
7
  6
DASHDOT
 10
283.707000
 20
130.000000
 11
295.707000
 21
130.000000
  0
LINE
  8
1
 62
7
  6
DASHDOT
 10
289.707000
 20
136.000000
 11
289.707000
 21
124.000000
  0
CIRCLE
  8
1
 62
7
  6
CONTINUOUS
 10
264.707000
 20
130.000000
 40
1.650000
  0
CIRCLE
  8
1
 62
7
  6
CONTINUOUS
 10
264.707000
 20
130.000000
 40
2.000000
  0
LINE
  8
1
 62
7
  6
DASHDOT
 10
260.707000
 20
130.000000
 11
268.707000
 21
130.000000
  0
LINE
  8
1
 62
7
  6
DASHDOT
 10
264.707000
 20
134.000000
 11
264.707000
 21
126.000000
  0
CIRCLE
  8
1
 62
7
  6
CONTINUOUS
 10
264.707000
 20
105.000000
 40
1.650000
  0
CIRCLE
  8
1
 62
7
  6
CONTINUOUS
 10
264.707000
 20
105.000000
 40
2.000000
  0
LINE
  8
1
 62
7
  6
DASHDOT
 10
260.707000
 20
105.000000
 11
268.707000
 21
105.000000
  0
LINE
  8
1
 62
7
  6
DASHDOT
 10
264.707000
 20
109.000000
 11
264.707000
 21
101.000000
  0
CIRCLE
  8
1
 62
7
  6
CONTINUOUS
 10
289.707000
 20
105.000000
 40
1.650000
  0
CIRCLE
  8
1
 62
7
  6
CONTINUOUS
 10
289.707000
 20
105.000000
 40
2.000000
  0
LINE
  8
1
 62
7
  6
DASHDOT
 10
285.707000
 20
105.000000
 11
293.707000
 21
105.000000
  0
LINE
  8
1
 62
7
  6
DASHDOT
 10
289.707000
 20
109.000000
 11
289.707000
 21
101.000000
  0
CIRCLE
  8
1
 62
7
  6
CONTINUOUS
 10
314.707000
 20
105.000000
 40
1.650000
  0
CIRCLE
  8
1
 62
7
  6
CONTINUOUS
 10
314.707000
 20
105.000000
 40
2.000000
  0
LINE
  8
1
 62
7
  6
DASHDOT
 10
310.707000
 20
105.000000
 11
318.707000
 21
105.000000
  0
CIRCLE
  8
1
 62
7
  6
CONTINUOUS
 10
314.707000
 20
130.000000
 40
1.650000
  0
CIRCLE
  8
1
 62
7
  6
CONTINUOUS
 10
314.707000
 20
130.000000
 40
2.000000
  0
LINE
  8
1
 62
7
  6
DASHDOT
 10
310.707000
 20
130.000000
 11
318.707000
 21
130.000000
  0
CIRCLE
  8
1
 62
7
  6
CONTINUOUS
 10
289.707000
 20
180.000000
 40
2.250000
  0
LINE
  8
1
 62
7
  6
DASHDOT
 10
289.707000
 20
186.000000
 11
289.707000
 21
174.000000
  0
LINE
  8
1
 62
7
  6
DASHDOT
 10
295.707000
 20
180.000000
 11
283.707000
 21
180.000000
  0
CIRCLE
  8
1
 62
7
  6
CONTINUOUS
 10
289.707000
 20
205.000000
 40
1.650000
  0
CIRCLE
  8
1
 62
7
  6
CONTINUOUS
 10
289.707000
 20
205.000000
 40
2.000000
  0
LINE
  8
1
 62
7
  6
DASHDOT
 10
289.707000
 20
209.000000
 11
289.707000
 21
201.000000
  0
LINE
  8
1
 62
7
  6
DASHDOT
 10
293.707000
 20
205.000000
 11
285.707000
 21
205.000000
  0
CIRCLE
  8
1
 62
7
  6
CONTINUOUS
 10
264.707000
 20
205.000000
 40
1.650000
  0
CIRCLE
  8
1
 62
7
  6
CONTINUOUS
 10
264.707000
 20
205.000000
 40
2.000000
  0
LINE
  8
1
 62
7
  6
DASHDOT
 10
264.707000
 20
209.000000
 11
264.707000
 21
201.000000
  0
LINE
  8
1
 62
7
  6
DASHDOT
 10
268.707000
 20
205.000000
 11
260.707000
 21
205.000000
  0
CIRCLE
  8
1
 62
7
  6
CONTINUOUS
 10
264.707000
 20
180.000000
 40
1.650000
  0
CIRCLE
  8
1
 62
7
  6
CONTINUOUS
 10
264.707000
 20
180.000000
 40
2.000000
  0
LINE
  8
1
 62
7
  6
DASHDOT
 10
264.707000
 20
184.000000
 11
264.707000
 21
176.000000
  0
LINE
  8
1
 62
7
  6
DASHDOT
 10
268.707000
 20
180.000000
 11
260.707000
 21
180.000000
  0
CIRCLE
  8
1
 62
7
  6
CONTINUOUS
 10
264.707000
 20
155.000000
 40
1.650000
  0
CIRCLE
  8
1
 62
7
  6
CONTINUOUS
 10
264.707000
 20
155.000000
 40
2.000000
  0
LINE
  8
1
 62
7
  6
DASHDOT
 10
264.707000
 20
159.000000
 11
264.707000
 21
151.000000
  0
CIRCLE
  8
1
 62
7
  6
CONTINUOUS
 10
289.707000
 20
155.000000
 40
1.650000
  0
CIRCLE
  8
1
 62
7
  6
CONTINUOUS
 10
289.707000
 20
155.000000
 40
2.000000
  0
LINE
  8
1
 62
7
  6
DASHDOT
 10
289.707000
 20
159.000000
 11
289.707000
 21
151.000000
  0
CIRCLE
  8
1
 62
7
  6
CONTINUOUS
 10
314.707000
 20
155.000000
 40
1.650000
  0
CIRCLE
  8
1
 62
7
  6
CONTINUOUS
 10
314.707000
 20
155.000000
 40
2.000000
  0
LINE
  8
1
 62
7
  6
CONTINUOUS
 10
254.707000
 20
213.000000
 11
256.707000
 21
215.000000
  0
LINE
  8
1
 62
7
  6
CONTINUOUS
 10
256.707000
 20
215.000000
 11
372.707000
 21
215.000000
  0
LINE
  8
1
 62
7
  6
CONTINUOUS
 10
374.707000
 20
213.000000
 11
372.707000
 21
215.000000
  0
LINE
  8
1
 62
7
  6
CONTINUOUS
 10
374.707000
 20
213.000000
 11
374.707000
 21
97.000000
  0
LINE
  8
1
 62
7
  6
CONTINUOUS
 10
372.707000
 20
95.000000
 11
374.707000
 21
97.000000
  0
LINE
  8
1
 62
7
  6
CONTINUOUS
 10
254.707000
 20
97.000000
 11
254.707000
 21
213.000000
  0
LINE
  8
1
 62
7
  6
CONTINUOUS
 10
372.707000
 20
95.000000
 11
256.707000
 21
95.000000
  0
LINE
  8
1
 62
7
  6
CONTINUOUS
 10
254.707000
 20
97.000000
 11
256.707000
 21
95.000000
  0
CIRCLE
  8
1
 62
7
  6
HIDDEN
 10
289.707000
 20
180.000000
 40
4.000000
  0
CIRCLE
  8
1
 62
7
  6
HIDDEN
 10
339.707000
 20
180.000000
 40
4.000000
  0
CIRCLE
  8
1
 62
7
  6
HIDDEN
 10
339.707000
 20
130.000000
 40
4.000000
  0
CIRCLE
  8
1
 62
7
  6
HIDDEN
 10
289.707000
 20
130.000000
 40
4.000000
  0
LINE
  8
1
 62
7
  6
DASHDOT
 10
115.851000
 20
220.000000
 11
115.851000
 21
90.000000
  0
LINE
  8
1
 62
7
  6
DASHDOT
 10
180.851000
 20
155.000000
 11
50.851000
 21
155.000000
  0
CIRCLE
  8
1
 62
7
  6
CONTINUOUS
 10
90.851000
 20
180.000000
 40
2.250000
  0
CIRCLE
  8
1
 62
7
  6
CONTINUOUS
 10
90.851000
 20
180.000000
 40
4.000000
  0
LINE
  8
1
 62
7
  6
DASHDOT
 10
84.851000
 20
180.000000
 11
96.851000
 21
180.000000
  0
LINE
  8
1
 62
7
  6
DASHDOT
 10
90.851000
 20
174.000000
 11
90.851000
 21
186.000000
  0
CIRCLE
  8
1
 62
7
  6
CONTINUOUS
 10
65.851000
 20
180.000000
 40
1.650000
  0
CIRCLE
  8
1
 62
7
  6
CONTINUOUS
 10
65.851000
 20
180.000000
 40
2.000000
  0
LINE
  8
1
 62
7
  6
DASHDOT
 10
61.851000
 20
180.000000
 11
69.851000
 21
180.000000
  0
LINE
  8
1
 62
7
  6
DASHDOT
 10
65.851000
 20
176.000000
 11
65.851000
 21
184.000000
  0
CIRCLE
  8
1
 62
7
  6
CONTINUOUS
 10
65.851000
 20
205.000000
 40
1.650000
  0
CIRCLE
  8
1
 62
7
  6
CONTINUOUS
 10
65.851000
 20
205.000000
 40
2.000000
  0
LINE
  8
1
 62
7
  6
DASHDOT
 10
61.851000
 20
205.000000
 11
69.851000
 21
205.000000
  0
LINE
  8
1
 62
7
  6
DASHDOT
 10
65.851000
 20
201.000000
 11
65.851000
 21
209.000000
  0
CIRCLE
  8
1
 62
7
  6
CONTINUOUS
 10
90.851000
 20
205.000000
 40
1.650000
  0
CIRCLE
  8
1
 62
7
  6
CONTINUOUS
 10
90.851000
 20
205.000000
 40
2.000000
  0
LINE
  8
1
 62
7
  6
DASHDOT
 10
86.851000
 20
205.000000
 11
94.851000
 21
205.000000
  0
LINE
  8
1
 62
7
  6
DASHDOT
 10
90.851000
 20
201.000000
 11
90.851000
 21
209.000000
  0
CIRCLE
  8
1
 62
7
  6
CONTINUOUS
 10
115.851000
 20
205.000000
 40
1.650000
  0
CIRCLE
  8
1
 62
7
  6
CONTINUOUS
 10
115.851000
 20
205.000000
 40
2.000000
  0
LINE
  8
1
 62
7
  6
DASHDOT
 10
111.851000
 20
205.000000
 11
119.851000
 21
205.000000
  0
CIRCLE
  8
1
 62
7
  6
CONTINUOUS
 10
115.851000
 20
180.000000
 40
1.650000
  0
CIRCLE
  8
1
 62
7
  6
CONTINUOUS
 10
115.851000
 20
180.000000
 40
2.000000
  0
LINE
  8
1
 62
7
  6
DASHDOT
 10
111.851000
 20
180.000000
 11
119.851000
 21
180.000000
  0
CIRCLE
  8
1
 62
7
  6
CONTINUOUS
 10
90.851000
 20
130.000000
 40
2.250000
  0
CIRCLE
  8
1
 62
7
  6
CONTINUOUS
 10
90.851000
 20
130.000000
 40
4.000000
  0
LINE
  8
1
 62
7
  6
DASHDOT
 10
90.851000
 20
124.000000
 11
90.851000
 21
136.000000
  0
LINE
  8
1
 62
7
  6
DASHDOT
 10
96.851000
 20
130.000000
 11
84.851000
 21
130.000000
  0
CIRCLE
  8
1
 62
7
  6
CONTINUOUS
 10
90.851000
 20
105.000000
 40
1.650000
  0
CIRCLE
  8
1
 62
7
  6
CONTINUOUS
 10
90.851000
 20
105.000000
 40
2.000000
  0
LINE
  8
1
 62
7
  6
DASHDOT
 10
90.851000
 20
101.000000
 11
90.851000
 21
109.000000
  0
LINE
  8
1
 62
7
  6
DASHDOT
 10
94.851000
 20
105.000000
 11
86.851000
 21
105.000000
  0
CIRCLE
  8
1
 62
7
  6
CONTINUOUS
 10
65.851000
 20
105.000000
 40
1.650000
  0
CIRCLE
  8
1
 62
7
  6
CONTINUOUS
 10
65.851000
 20
105.000000
 40
2.000000
  0
LINE
  8
1
 62
7
  6
DASHDOT
 10
65.851000
 20
101.000000
 11
65.851000
 21
109.000000
  0
LINE
  8
1
 62
7
  6
DASHDOT
 10
69.851000
 20
105.000000
 11
61.851000
 21
105.000000
  0
CIRCLE
  8
1
 62
7
  6
CONTINUOUS
 10
65.851000
 20
130.000000
 40
1.650000
  0
CIRCLE
  8
1
 62
7
  6
CONTINUOUS
 10
65.851000
 20
130.000000
 40
2.000000
  0
LINE
  8
1
 62
7
  6
DASHDOT
 10
65.851000
 20
126.000000
 11
65.851000
 21
134.000000
  0
LINE
  8
1
 62
7
  6
DASHDOT
 10
69.851000
 20
130.000000
 11
61.851000
 21
130.000000
  0
CIRCLE
  8
1
 62
7
  6
CONTINUOUS
 10
65.851000
 20
155.000000
 40
1.650000
  0
CIRCLE
  8
1
 62
7
  6
CONTINUOUS
 10
65.851000
 20
155.000000
 40
2.000000
  0
LINE
  8
1
 62
7
  6
DASHDOT
 10
65.851000
 20
151.000000
 11
65.851000
 21
159.000000
  0
CIRCLE
  8
1
 62
7
  6
CONTINUOUS
 10
90.851000
 20
155.000000
 40
1.650000
  0
CIRCLE
  8
1
 62
7
  6
CONTINUOUS
 10
90.851000
 20
155.000000
 40
2.000000
  0
LINE
  8
1
 62
7
  6
DASHDOT
 10
90.851000
 20
151.000000
 11
90.851000
 21
159.000000
  0
CIRCLE
  8
1
 62
7
  6
CONTINUOUS
 10
140.851000
 20
130.000000
 40
2.250000
  0
CIRCLE
  8
1
 62
7
  6
CONTINUOUS
 10
140.851000
 20
130.000000
 40
4.000000
  0
LINE
  8
1
 62
7
  6
DASHDOT
 10
146.851000
 20
130.000000
 11
134.851000
 21
130.000000
  0
LINE
  8
1
 62
7
  6
DASHDOT
 10
140.851000
 20
136.000000
 11
140.851000
 21
124.000000
  0
CIRCLE
  8
1
 62
7
  6
CONTINUOUS
 10
165.851000
 20
130.000000
 40
1.650000
  0
CIRCLE
  8
1
 62
7
  6
CONTINUOUS
 10
165.851000
 20
130.000000
 40
2.000000
  0
LINE
  8
1
 62
7
  6
DASHDOT
 10
169.851000
 20
130.000000
 11
161.851000
 21
130.000000
  0
LINE
  8
1
 62
7
  6
DASHDOT
 10
165.851000
 20
134.000000
 11
165.851000
 21
126.000000
  0
CIRCLE
  8
1
 62
7
  6
CONTINUOUS
 10
165.851000
 20
105.000000
 40
1.650000
  0
CIRCLE
  8
1
 62
7
  6
CONTINUOUS
 10
165.851000
 20
105.000000
 40
2.000000
  0
LINE
  8
1
 62
7
  6
DASHDOT
 10
169.851000
 20
105.000000
 11
161.851000
 21
105.000000
  0
LINE
  8
1
 62
7
  6
DASHDOT
 10
165.851000
 20
109.000000
 11
165.851000
 21
101.000000
  0
CIRCLE
  8
1
 62
7
  6
CONTINUOUS
 10
140.851000
 20
105.000000
 40
1.650000
  0
CIRCLE
  8
1
 62
7
  6
CONTINUOUS
 10
140.851000
 20
105.000000
 40
2.000000
  0
LINE
  8
1
 62
7
  6
DASHDOT
 10
144.851000
 20
105.000000
 11
136.851000
 21
105.000000
  0
LINE
  8
1
 62
7
  6
DASHDOT
 10
140.851000
 20
109.000000
 11
140.851000
 21
101.000000
  0
CIRCLE
  8
1
 62
7
  6
CONTINUOUS
 10
115.851000
 20
105.000000
 40
1.650000
  0
CIRCLE
  8
1
 62
7
  6
CONTINUOUS
 10
115.851000
 20
105.000000
 40
2.000000
  0
LINE
  8
1
 62
7
  6
DASHDOT
 10
119.851000
 20
105.000000
 11
111.851000
 21
105.000000
  0
CIRCLE
  8
1
 62
7
  6
CONTINUOUS
 10
115.851000
 20
130.000000
 40
1.650000
  0
CIRCLE
  8
1
 62
7
  6
CONTINUOUS
 10
115.851000
 20
130.000000
 40
2.000000
  0
LINE
  8
1
 62
7
  6
DASHDOT
 10
119.851000
 20
130.000000
 11
111.851000
 21
130.000000
  0
CIRCLE
  8
1
 62
7
  6
CONTINUOUS
 10
140.851000
 20
180.000000
 40
2.250000
  0
CIRCLE
  8
1
 62
7
  6
CONTINUOUS
 10
140.851000
 20
180.000000
 40
4.000000
  0
LINE
  8
1
 62
7
  6
DASHDOT
 10
140.851000
 20
186.000000
 11
140.851000
 21
174.000000
  0
LINE
  8
1
 62
7
  6
DASHDOT
 10
134.851000
 20
180.000000
 11
146.851000
 21
180.000000
  0
CIRCLE
  8
1
 62
7
  6
CONTINUOUS
 10
140.851000
 20
205.000000
 40
1.650000
  0
CIRCLE
  8
1
 62
7
  6
CONTINUOUS
 10
140.851000
 20
205.000000
 40
2.000000
  0
LINE
  8
1
 62
7
  6
DASHDOT
 10
140.851000
 20
209.000000
 11
140.851000
 21
201.000000
  0
LINE
  8
1
 62
7
  6
DASHDOT
 10
136.851000
 20
205.000000
 11
144.851000
 21
205.000000
  0
CIRCLE
  8
1
 62
7
  6
CONTINUOUS
 10
165.851000
 20
205.000000
 40
1.650000
  0
CIRCLE
  8
1
 62
7
  6
CONTINUOUS
 10
165.851000
 20
205.000000
 40
2.000000
  0
LINE
  8
1
 62
7
  6
DASHDOT
 10
165.851000
 20
209.000000
 11
165.851000
 21
201.000000
  0
LINE
  8
1
 62
7
  6
DASHDOT
 10
161.851000
 20
205.000000
 11
169.851000
 21
205.000000
  0
CIRCLE
  8
1
 62
7
  6
CONTINUOUS
 10
165.851000
 20
180.000000
 40
1.650000
  0
CIRCLE
  8
1
 62
7
  6
CONTINUOUS
 10
165.851000
 20
180.000000
 40
2.000000
  0
LINE
  8
1
 62
7
  6
DASHDOT
 10
165.851000
 20
184.000000
 11
165.851000
 21
176.000000
  0
LINE
  8
1
 62
7
  6
DASHDOT
 10
161.851000
 20
180.000000
 11
169.851000
 21
180.000000
  0
CIRCLE
  8
1
 62
7
  6
CONTINUOUS
 10
165.851000
 20
155.000000
 40
1.650000
  0
CIRCLE
  8
1
 62
7
  6
CONTINUOUS
 10
165.851000
 20
155.000000
 40
2.000000
  0
LINE
  8
1
 62
7
  6
DASHDOT
 10
165.851000
 20
159.000000
 11
165.851000
 21
151.000000
  0
CIRCLE
  8
1
 62
7
  6
CONTINUOUS
 10
140.851000
 20
155.000000
 40
1.650000
  0
CIRCLE
  8
1
 62
7
  6
CONTINUOUS
 10
140.851000
 20
155.000000
 40
2.000000
  0
LINE
  8
1
 62
7
  6
DASHDOT
 10
140.851000
 20
159.000000
 11
140.851000
 21
151.000000
  0
CIRCLE
  8
1
 62
7
  6
CONTINUOUS
 10
115.851000
 20
155.000000
 40
1.650000
  0
CIRCLE
  8
1
 62
7
  6
CONTINUOUS
 10
115.851000
 20
155.000000
 40
2.000000
  0
LINE
  8
1
 62
7
  6
CONTINUOUS
 10
175.851000
 20
213.000000
 11
173.851000
 21
215.000000
  0
LINE
  8
1
 62
7
  6
CONTINUOUS
 10
173.851000
 20
215.000000
 11
57.851000
 21
215.000000
  0
LINE
  8
1
 62
7
  6
CONTINUOUS
 10
55.851000
 20
213.000000
 11
57.851000
 21
215.000000
  0
LINE
  8
1
 62
7
  6
CONTINUOUS
 10
55.851000
 20
213.000000
 11
55.851000
 21
97.000000
  0
LINE
  8
1
 62
7
  6
CONTINUOUS
 10
57.851000
 20
95.000000
 11
55.851000
 21
97.000000
  0
LINE
  8
1
 62
7
  6
CONTINUOUS
 10
175.851000
 20
97.000000
 11
175.851000
 21
213.000000
  0
LINE
  8
1
 62
7
  6
CONTINUOUS
 10
57.851000
 20
95.000000
 11
173.851000
 21
95.000000
  0
LINE
  8
1
 62
7
  6
CONTINUOUS
 10
175.851000
 20
97.000000
 11
173.851000
 21
95.000000
  0
TEXT
  8
1
 62
7
  6
CONTINUOUS
 10
358.582000
 20
39.250000
 40
3.500000
 41
0.578703
  1
ラボジャッキ用上面プレート
  7
KANJI
 50
0.000000
 51
0.000000
  0
ENDSEC
  0
EOF
