  0
SECTION
  2
HEADER
  9
$ACADVER
  1
AC1004
  9
$INSBASE
 10
0.000000
 20
0.000000
  9
$EXTMIN
 10
0.000000
 20
0.000000
  9
$EXTMAX
 10
1189.000000
 20
841.000000
  9
$LIMMIN
 10
0.000000
 20
0.000000
  9
$LIMMAX
 10
1189.000000
 20
841.000000
  9
$VIEWCTR
 10
594.500000
 20
420.500000
  9
$VIEWSIZE
 40
841.000000
  9
$PEXTMIN
 10
0.000000
 20
0.000000
 30
0.000000
  9
$PEXTMAX
 10
1189.000000
 20
841.000000
 30
0.000000
  9
$SNAPMODE
 70
     0
  9
$SNAPUNIT
 10
1.000000
 20
1.000000
  9
$SNAPBASE
 10
0.000000
 20
0.000000
  9
$SNAPANG
 50
0.000000
  9
$SNAPISOPAIR
 70
     0
  9
$SNAPSTYLE
 70
     0
  9
$GRIDMODE
 70
     0
  9
$GRIDUNIT
 10
0.000000
 20
0.000000
  9
$ORTHOMODE
 70
     0
  9
$REGENMODE
 70
     1
  9
$FILLMODE
 70
     1
  9
$QTEXTMODE
 70
     0
  9
$DRAGMODE
 70
     2
  9
$LTSCALE
 40
0.250000
  9
$OSMODE
 70
     0
  9
$ATTMODE
 70
     1
  9
$TEXTSIZE
 40
3.500000
  9
$TRACEWID
 40
0.050000
  9
$TEXTSTYLE
  7
STANDARD
  9
$CLAYER
  8
0
  9
$CELTYPE
  6
BYLAYER
  9
$CECOLOR
 62
   256
  9
$DIMSCALE
 40
1.000000
  9
$DIMASZ
 40
1.000000
  9
$DIMEXO
 40
0.000000
  9
$DIMDLI
 40
0.500000
  9
$DIMRND
 40
0.000000
  9
$DIMDLE
 40
0.000000
  9
$DIMEXE
 40
0.000000
  9
$DIMTP
 40
0.000000
  9
$DIMTM
 40
0.000000
  9
$DIMTXT
 40
3.500000
  9
$DIMCEN
 40
0.000000
  9
$DIMTSZ
 40
0.000000
  9
$DIMTOL
 70
     0
  9
$DIMLIM
 70
     0
  9
$DIMTIH
 70
     1
  9
$DIMTOH
 70
     1
  9
$DIMSE1
 70
     0
  9
$DIMSE2
 70
     0
  9
$DIMTAD
 70
     0
  9
$DIMZIN
 70
     0
  9
$DIMBLK
  1

  9
$DIMASO
 70
     0
  9
$DIMSHO
 70
     0
  9
$DIMPOST
  1

  9
$DIMAPOST
  1

  9
$DIMALT
 70
     0
  9
$DIMALTD
 70
     0
  9
$DIMALTF
 40
25.400000
  9
$DIMLFAC
 40
1.000000
  9
$DIMTOFL
 70
     0
  9
$DIMTVP
 40
0.000000
  9
$DIMTIX
 70
     0
  9
$DIMSOXD
 70
     0
  9
$DIMSAH
 70
     0
  9
$DIMBLKL
  1

  9
$DIMBLKR
  1

  9
$LUNITS
 70
     2
  9
$LUPREC
 70
     2
  9
$AXISMODE
 70
     0
  9
$AXISUNIT
 10
1.000000
 20
1.000000
  9
$SKETCHINC
 40
0.000000
  9
$FILLETRAD
 40
0.000000
  9
$AUNITS
 70
     1
  9
$AUPREC
 70
     2
  9
$MENU
  1
ACAD
  9
$ELEVATION
 40
0.000000
  9
$THICKNESS
 40
0.000000
  9
$VIEWDIR
 10
0.000000
 20
0.000000
 30
1.000000
  9
$LIMCHECK
 70
     1
  9
$BLIPMODE
 70
     1
  9
$CHAMFERA
 40
0.000000
  9
$CHAMFERB
 40
0.000000
  9
$FASTZOOM
 70
     1
  9
$SKPOLY
 70
     0
  9
$TDCREATE
 40
0.000000
  9
$TDUPDATE
 40
0.000000
  9
$TDINDWG
 40
0.000000
  9
$TDUSRTIMER
 40
0.000000
  9
$USRTIMER
 70
     1
  9
$ANGBASE
 50
0.000000
  9
$ANGDIR
 70
     0
  9
$PDMODE
 70
     0
  9
$PDSIZE
 40
0.000000
  9
$PLINEWID
 40
0.000000
  9
$COORDS
 70
     2
  9
$USERI1
 70
     0
  9
$USERI2
 70
     0
  9
$USERI3
 70
     0
  9
$USERI4
 70
     0
  9
$USERI5
 70
     0
  9
$USERR1
 40
0.000000
  9
$USERR2
 40
0.000000
  9
$USERR3
 40
0.000000
  9
$USERR4
 40
0.000000
  9
$USERR5
 40
0.000000
  0
ENDSEC
  0
SECTION
  2
TABLES
  0
TABLE
  2
LTYPE
 70
     5
  0
LTYPE
  2
CONTINUOUS
 70
    64
  3
Solid line
 72
    65
 73
     0
 40
0.0
  0
LTYPE
  2
HIDDEN
 70
    64
  3
------------------------
 72
    65
 73
     2
 40
12.6
 49
8.4
 49
-4.2
  0
LTYPE
  2
DOT
 70
    64
  3
････････････････････････
 72
    65
 73
     2
 40
8.0
 49
6.0
 49
-2.0
  0
LTYPE
  2
DASHDOT
 70
    64
  3
--･--･--･--･--･--･--･--
 72
    65
 73
     4
 40
50.5
 49
30.0
 49
-9.0
 49
2.5
 49
-9.0
  0
LTYPE
  2
DIVIDE
 70
    64
  3
--･･--･･--･･--･･--･･--
 72
    65
 73
     6
 40
58.0
 49
30.0
 49
-9.0
 49
2.5
 49
-5.0
 49
2.5
 49
-9.0
  0
LTYPE
  2
ACAD_ISO06W100
 70
    64
  3
____ ... ____ ... ____
 72
    65
 73
     8
 40
37.5
 49
24.0
 49
-3.0
 49
0.5
 49
-3.0
 49
0.5
 49
-3.0
 49
0.5
 49
-3.0
  0
LTYPE
  2
ACAD_ISO14W100
 70
    64
  3
__ . . . __ . . . __ . . . 
 72
    65
 73
     8
 40
25.5
 49
12.0
 49
-3.0
 49
0.5
 49
-3.0
 49
0.5
 49
-3.0
 49
0.5
 49
-3.0
  0
ENDTAB
  0
TABLE
  2
LAYER
 70
1
  0
LAYER
  2
1
 70
64
 62
7
  6
CONTINUOUS
  0
ENDTAB
  0
TABLE
  2
STYLE
 70
     2
  0
STYLE
  2
STANDARD
 70
    64
 40
0.0
 41
1.0
 50
0.0
 71
     0
 42
0.2
  3
TXT
  4

  0
STYLE
  2
KANJI
 70
    64
 40
0.0
 41
1.0
 50
0.0
 71
     0
 42
0.2
  3
TXT
  4
BIGFONT
  0
ENDTAB
  0
TABLE
  2
VIEW
 70
     0
  0
ENDTAB
  0
ENDSEC
  0
SECTION
  2
BLOCKS
  0
ENDSEC
  0
SECTION
  2
ENTITIES
  0
LINE
  8
1
 62
7
  6
CONTINUOUS
 10
897.110000
 20
149.990000
 11
1146.150000
 21
149.990000
  0
LINE
  8
1
 62
7
  6
CONTINUOUS
 10
897.110000
 20
149.990000
 11
897.110000
 21
48.110000
  0
LINE
  8
1
 62
7
  6
CONTINUOUS
 10
897.110000
 20
121.690000
 11
976.350000
 21
121.690000
  0
LINE
  8
1
 62
7
  6
CONTINUOUS
 10
897.110000
 20
82.070000
 11
1146.150000
 21
82.070000
  0
TEXT
  8
1
 62
7
  6
CONTINUOUS
 10
1090.965000
 20
55.185000
 40
8.490000
 41
1.000000
  1
1/1
  7
KANJI
 50
0.000000
 51
0.000000
  0
TEXT
  8
1
 62
7
  6
CONTINUOUS
 10
1127.755000
 20
55.185000
 40
8.490000
 41
1.000000
  1
-
  7
KANJI
 50
0.000000
 51
0.000000
  0
TEXT
  8
1
 62
7
  6
CONTINUOUS
 10
932.485000
 20
55.185000
 40
8.490000
 41
0.694444
  1
－
  7
KANJI
 50
0.000000
 51
0.000000
  0
TEXT
  8
1
 62
7
  6
CONTINUOUS
 10
937.797613
 20
125.935000
 40
8.490000
 41
0.694444
  1
－
  7
KANJI
 50
0.000000
 51
0.000000
  0
LINE
  8
1
 62
7
  6
CONTINUOUS
 10
0.000000
 20
0.000000
 11
28.300000
 21
0.000000
  0
LINE
  8
1
 62
7
  6
CONTINUOUS
 10
0.000000
 20
0.000000
 11
0.000000
 21
28.300000
  0
LINE
  8
1
 62
7
  6
CONTINUOUS
 10
42.450000
 20
803.720000
 11
1146.150000
 21
803.720000
  0
LINE
  8
1
 62
7
  6
CONTINUOUS
 10
42.450000
 20
48.110000
 11
1146.150000
 21
48.110000
  0
LINE
  8
1
 62
7
  6
CONTINUOUS
 10
42.450000
 20
48.110000
 11
42.450000
 21
803.720000
  0
LINE
  8
1
 62
7
  6
CONTINUOUS
 10
42.450000
 20
48.110000
 11
251.870000
 21
48.110000
  0
LINE
  8
1
 62
7
  6
CONTINUOUS
 10
42.450000
 20
48.110000
 11
42.450000
 21
172.064000
  0
TEXT
  8
1
 62
7
  6
CONTINUOUS
 10
129.897000
 20
35.092000
 40
9.056000
 41
1.000000
  1
1
  7
KANJI
 50
0.000000
 51
0.000000
  0
LINE
  8
1
 62
7
  6
CONTINUOUS
 10
226.400000
 20
48.110000
 11
226.400000
 21
39.620000
  0
TEXT
  8
1
 62
7
  6
CONTINUOUS
 10
30.847000
 20
106.549500
 40
9.056000
 41
1.000000
  1
F
  7
KANJI
 50
0.000000
 51
0.000000
  0
LINE
  8
1
 62
7
  6
CONTINUOUS
 10
42.450000
 20
174.045000
 11
33.960000
 21
174.045000
  0
TEXT
  8
1
 62
7
  6
CONTINUOUS
 10
30.847000
 20
232.484500
 40
9.056000
 41
1.000000
  1
E
  7
KANJI
 50
0.000000
 51
0.000000
  0
LINE
  8
1
 62
7
  6
CONTINUOUS
 10
42.450000
 20
299.980000
 11
33.960000
 21
299.980000
  0
TEXT
  8
1
 62
7
  6
CONTINUOUS
 10
313.847000
 20
35.092000
 40
9.056000
 41
1.000000
  1
2
  7
KANJI
 50
0.000000
 51
0.000000
  0
LINE
  8
1
 62
7
  6
CONTINUOUS
 10
410.350000
 20
48.110000
 11
410.350000
 21
39.620000
  0
TEXT
  8
1
 62
7
  6
CONTINUOUS
 10
497.797000
 20
35.092000
 40
9.056000
 41
1.000000
  1
3
  7
KANJI
 50
0.000000
 51
0.000000
  0
TEXT
  8
1
 62
7
  6
CONTINUOUS
 10
30.847000
 20
610.289500
 40
9.056000
 41
1.000000
  1
B
  7
KANJI
 50
0.000000
 51
0.000000
  0
TEXT
  8
1
 62
7
  6
CONTINUOUS
 10
30.847000
 20
358.419500
 40
9.056000
 41
1.000000
  1
D
  7
KANJI
 50
0.000000
 51
0.000000
  0
LINE
  8
1
 62
7
  6
CONTINUOUS
 10
33.960000
 20
425.915000
 11
50.940000
 21
425.915000
  0
LINE
  8
1
 62
7
  6
CONTINUOUS
 10
50.940000
 20
425.915000
 11
33.960000
 21
425.915000
  0
TEXT
  8
1
 62
7
  6
CONTINUOUS
 10
30.847000
 20
484.354500
 40
9.056000
 41
1.000000
  1
C
  7
KANJI
 50
0.000000
 51
0.000000
  0
LINE
  8
1
 62
7
  6
CONTINUOUS
 10
42.450000
 20
551.850000
 11
33.960000
 21
551.850000
  0
LINE
  8
1
 62
7
  6
CONTINUOUS
 10
42.450000
 20
677.785000
 11
33.960000
 21
677.785000
  0
TEXT
  8
1
 62
7
  6
CONTINUOUS
 10
30.847000
 20
736.224500
 40
9.056000
 41
1.000000
  1
A
  7
KANJI
 50
0.000000
 51
0.000000
  0
TEXT
  8
1
 62
7
  6
CONTINUOUS
 10
129.897000
 20
807.682000
 40
9.056000
 41
1.000000
  1
1
  7
KANJI
 50
0.000000
 51
0.000000
  0
LINE
  8
1
 62
7
  6
CONTINUOUS
 10
226.400000
 20
803.720000
 11
226.400000
 21
812.210000
  0
TEXT
  8
1
 62
7
  6
CONTINUOUS
 10
313.847000
 20
807.682000
 40
9.056000
 41
1.000000
  1
2
  7
KANJI
 50
0.000000
 51
0.000000
  0
LINE
  8
1
 62
7
  6
CONTINUOUS
 10
410.350000
 20
803.720000
 11
410.350000
 21
812.210000
  0
TEXT
  8
1
 62
7
  6
CONTINUOUS
 10
497.797000
 20
807.682000
 40
9.056000
 41
1.000000
  1
3
  7
KANJI
 50
0.000000
 51
0.000000
  0
LINE
  8
1
 62
7
  6
CONTINUOUS
 10
594.300000
 20
795.230000
 11
594.300000
 21
812.210000
  0
LINE
  8
1
 62
7
  6
CONTINUOUS
 10
1146.150000
 20
48.110000
 11
1146.150000
 21
803.720000
  0
TEXT
  8
1
 62
7
  6
CONTINUOUS
 10
1094.191200
 20
72.448000
 40
7.924000
 41
0.600000
  1
Page
  7
KANJI
 50
0.000000
 51
0.000000
  0
LINE
  8
1
 62
7
  6
CONTINUOUS
 10
897.110000
 20
70.750000
 11
1146.150000
 21
70.750000
  0
LINE
  8
1
 62
7
  6
CONTINUOUS
 10
1010.310000
 20
104.710000
 11
1146.150000
 21
104.710000
  0
LINE
  8
1
 62
7
  6
CONTINUOUS
 10
976.350000
 20
127.350000
 11
1146.150000
 21
127.350000
  0
LINE
  8
1
 62
7
  6
CONTINUOUS
 10
1089.550000
 20
48.110000
 11
1089.550000
 21
82.070000
  0
LINE
  8
1
 62
7
  6
CONTINUOUS
 10
976.350000
 20
48.110000
 11
976.350000
 21
149.990000
  0
TEXT
  8
1
 62
7
  6
CONTINUOUS
 10
681.747000
 20
35.092000
 40
9.056000
 41
1.000000
  1
4
  7
KANJI
 50
0.000000
 51
0.000000
  0
LINE
  8
1
 62
7
  6
CONTINUOUS
 10
778.250000
 20
48.110000
 11
778.250000
 21
39.620000
  0
TEXT
  8
1
 62
7
  6
CONTINUOUS
 10
865.697000
 20
35.092000
 40
9.056000
 41
1.000000
  1
5
  7
KANJI
 50
0.000000
 51
0.000000
  0
LINE
  8
1
 62
7
  6
CONTINUOUS
 10
962.200000
 20
48.110000
 11
962.200000
 21
39.620000
  0
TEXT
  8
1
 62
7
  6
CONTINUOUS
 10
1049.647000
 20
35.092000
 40
9.056000
 41
1.000000
  1
6
  7
KANJI
 50
0.000000
 51
0.000000
  0
TEXT
  8
1
 62
7
  6
CONTINUOUS
 10
976.689600
 20
134.708000
 40
7.924000
 41
0.600000
  1
PRODUCT
  7
KANJI
 50
0.000000
 51
0.000000
  0
TEXT
  8
1
 62
7
  6
CONTINUOUS
 10
979.746000
 20
100.182000
 40
9.056000
 41
0.600000
  1
TITLE
  7
KANJI
 50
0.000000
 51
0.000000
  0
TEXT
  8
1
 62
7
  6
CONTINUOUS
 10
910.580800
 20
72.448000
 40
7.924000
 41
0.697809
  1
Product No.
  7
KANJI
 50
0.000000
 51
0.000000
  0
LINE
  8
1
 62
7
  6
DASHDOT
 10
911.260000
 20
97.635000
 11
933.900000
 21
97.635000
  0
CIRCLE
  8
1
 62
7
  6
CONTINUOUS
 10
922.580000
 20
97.635000
 40
5.660000
  0
CIRCLE
  8
1
 62
7
  6
CONTINUOUS
 10
922.580000
 20
97.635000
 40
8.490000
  0
LINE
  8
1
 62
7
  6
DASHDOT
 10
922.580000
 20
86.315000
 11
922.580000
 21
108.955000
  0
TEXT
  8
1
 62
7
  6
CONTINUOUS
 10
899.940000
 20
112.068000
 40
6.792000
 41
0.600000
  1
PROJECTION
  7
KANJI
 50
0.000000
 51
0.000000
  0
LINE
  8
1
 62
7
  6
CONTINUOUS
 10
945.220000
 20
91.975000
 11
945.220000
 21
103.295000
  0
LINE
  8
1
 62
7
  6
CONTINUOUS
 10
945.220000
 20
103.295000
 11
959.370000
 21
106.125000
  0
LINE
  8
1
 62
7
  6
DASHDOT
 10
942.390000
 20
97.635000
 11
962.200000
 21
97.635000
  0
LINE
  8
1
 62
7
  6
CONTINUOUS
 10
959.370000
 20
89.145000
 11
959.370000
 21
106.125000
  0
LINE
  8
1
 62
7
  6
CONTINUOUS
 10
945.220000
 20
91.975000
 11
959.370000
 21
89.145000
  0
TEXT
  8
1
 62
7
  6
CONTINUOUS
 10
899.940000
 20
140.368000
 40
6.792000
 41
0.600000
  1
QUANTITY
  7
KANJI
 50
0.000000
 51
0.000000
  0
LINE
  8
1
 62
7
  6
CONTINUOUS
 10
1010.310000
 20
82.070000
 11
1010.310000
 21
149.990000
  0
TEXT
  8
1
 62
7
  6
CONTINUOUS
 10
1006.800800
 20
72.448000
 40
7.924000
 41
0.697809
  1
Drawing No.
  7
KANJI
 50
0.000000
 51
0.000000
  0
LINE
  8
1
 62
7
  6
CONTINUOUS
 10
1117.850000
 20
48.110000
 11
1117.850000
 21
82.070000
  0
TEXT
  8
1
 62
7
  6
CONTINUOUS
 10
1148.697000
 20
106.549500
 40
9.056000
 41
1.000000
  1
F
  7
KANJI
 50
0.000000
 51
0.000000
  0
TEXT
  8
1
 62
7
  6
CONTINUOUS
 10
1122.491200
 20
72.448000
 40
7.924000
 41
0.740741
  1
Rev.
  7
KANJI
 50
0.000000
 51
0.000000
  0
LINE
  8
1
 62
7
  6
CONTINUOUS
 10
1146.150000
 20
174.045000
 11
1154.640000
 21
174.045000
  0
TEXT
  8
1
 62
7
  6
CONTINUOUS
 10
1148.697000
 20
232.484500
 40
9.056000
 41
1.000000
  1
E
  7
KANJI
 50
0.000000
 51
0.000000
  0
LINE
  8
1
 62
7
  6
CONTINUOUS
 10
1146.150000
 20
299.980000
 11
1154.640000
 21
299.980000
  0
TEXT
  8
1
 62
7
  6
CONTINUOUS
 10
681.747000
 20
807.682000
 40
9.056000
 41
1.000000
  1
4
  7
KANJI
 50
0.000000
 51
0.000000
  0
LINE
  8
1
 62
7
  6
CONTINUOUS
 10
778.250000
 20
803.720000
 11
778.250000
 21
812.210000
  0
TEXT
  8
1
 62
7
  6
CONTINUOUS
 10
865.697000
 20
807.682000
 40
9.056000
 41
1.000000
  1
5
  7
KANJI
 50
0.000000
 51
0.000000
  0
LINE
  8
1
 62
7
  6
CONTINUOUS
 10
962.200000
 20
803.720000
 11
962.200000
 21
812.210000
  0
TEXT
  8
1
 62
7
  6
CONTINUOUS
 10
1049.647000
 20
807.682000
 40
9.056000
 41
1.000000
  1
6
  7
KANJI
 50
0.000000
 51
0.000000
  0
TEXT
  8
1
 62
7
  6
CONTINUOUS
 10
1148.697000
 20
610.289500
 40
9.056000
 41
1.000000
  1
B
  7
KANJI
 50
0.000000
 51
0.000000
  0
TEXT
  8
1
 62
7
  6
CONTINUOUS
 10
1148.697000
 20
358.419500
 40
9.056000
 41
1.000000
  1
D
  7
KANJI
 50
0.000000
 51
0.000000
  0
LINE
  8
1
 62
7
  6
CONTINUOUS
 10
1137.660000
 20
425.915000
 11
1154.640000
 21
425.915000
  0
TEXT
  8
1
 62
7
  6
CONTINUOUS
 10
1148.697000
 20
484.354500
 40
9.056000
 41
1.000000
  1
C
  7
KANJI
 50
0.000000
 51
0.000000
  0
LINE
  8
1
 62
7
  6
CONTINUOUS
 10
1146.150000
 20
551.850000
 11
1154.640000
 21
551.850000
  0
LINE
  8
1
 62
7
  6
CONTINUOUS
 10
1146.150000
 20
677.785000
 11
1154.640000
 21
677.785000
  0
TEXT
  8
1
 62
7
  6
CONTINUOUS
 10
1148.697000
 20
736.224500
 40
9.056000
 41
1.000000
  1
A
  7
KANJI
 50
0.000000
 51
0.000000
  0
LINE
  8
1
 62
7
  6
CONTINUOUS
 10
1160.300000
 20
-0.092559
 11
1188.600000
 21
-0.092559
  0
LINE
  8
1
 62
7
  6
CONTINUOUS
 10
1188.600000
 20
-0.092559
 11
1188.600000
 21
28.207441
  0
LINE
  8
1
 62
7
  6
CONTINUOUS
 10
0.000000
 20
840.510000
 11
28.300000
 21
840.510000
  0
LINE
  8
1
 62
7
  6
CONTINUOUS
 10
0.000000
 20
812.210000
 11
0.000000
 21
840.510000
  0
LINE
  8
1
 62
7
  6
CONTINUOUS
 10
1160.300000
 20
840.510000
 11
1188.600000
 21
840.510000
  0
LINE
  8
1
 62
7
  6
CONTINUOUS
 10
1188.600000
 20
812.117441
 11
1188.600000
 21
840.510000
  0
TEXT
  8
1
 62
7
  6
CONTINUOUS
 10
1015.970000
 20
134.170000
 40
9.000000
 41
0.555556
  1
LABZ-70
  7
KANJI
 50
0.000000
 51
0.000000
  0
LINE
  8
1
 62
7
  6
DASHDOT
 10
294.159000
 20
463.500000
 11
320.159000
 21
463.500000
  0
LINE
  8
1
 62
7
  6
DASHDOT
 10
307.159000
 20
450.500000
 11
307.159000
 21
476.500000
  0
LINE
  8
1
 62
7
  6
DASHDOT
 10
294.159000
 20
406.500000
 11
320.159000
 21
406.500000
  0
LINE
  8
1
 62
7
  6
DASHDOT
 10
307.159000
 20
419.500000
 11
307.159000
 21
393.500000
  0
CIRCLE
  8
1
 62
7
  6
CONTINUOUS
 10
247.629596
 20
435.000000
 40
8.500000
  0
CIRCLE
  8
1
 62
7
  6
CONTINUOUS
 10
247.629596
 20
435.000000
 40
7.500000
  0
CIRCLE
  8
1
 62
7
  6
CONTINUOUS
 10
307.159000
 20
406.500000
 40
7.500000
  0
CIRCLE
  8
1
 62
7
  6
CONTINUOUS
 10
307.159000
 20
406.500000
 40
8.500000
  0
CIRCLE
  8
1
 62
7
  6
CONTINUOUS
 10
307.159000
 20
463.500000
 40
8.500000
  0
CIRCLE
  8
1
 62
7
  6
CONTINUOUS
 10
307.159000
 20
463.500000
 40
7.500000
  0
LINE
  8
1
 62
7
  6
DASHDOT
 10
247.629596
 20
423.000000
 11
247.629596
 21
447.000000
  0
LINE
  8
1
 62
7
  6
CONTINUOUS
 10
243.743232
 20
443.117646
 11
303.272636
 21
471.617646
  0
LINE
  8
1
 62
7
  6
CONTINUOUS
 10
311.045364
 20
455.382354
 11
251.515959
 21
426.882354
  0
LINE
  8
1
 62
7
  6
CONTINUOUS
 10
243.743232
 20
426.882354
 11
303.272636
 21
398.382354
  0
ARC
  8
1
 62
7
  6
CONTINUOUS
 10
247.629596
 20
435.000000
 40
9.000000
 50
115.583002
 51
-64.416998
  0
ARC
  8
1
 62
7
  6
CONTINUOUS
 10
247.629596
 20
435.000000
 40
10.000000
 50
89.741069
 51
-89.741069
  0
ARC
  8
1
 62
7
  6
CONTINUOUS
 10
307.159000
 20
406.500000
 40
11.000000
 50
-150.679803
 51
-120.272641
  0
ARC
  8
1
 62
7
  6
CONTINUOUS
 10
307.159000
 20
463.500000
 40
9.000000
 50
-64.416998
 51
115.583002
  0
ARC
  8
1
 62
7
  6
CONTINUOUS
 10
307.159000
 20
463.500000
 40
11.000000
 50
120.272641
 51
150.679803
  0
CIRCLE
  8
1
 62
7
  6
CONTINUOUS
 10
250.379596
 20
439.763140
 40
1.050000
  0
CIRCLE
  8
1
 62
7
  6
CONTINUOUS
 10
244.879596
 20
430.236860
 40
1.050000
  0
CIRCLE
  8
1
 62
7
  6
CONTINUOUS
 10
366.688404
 20
435.000000
 40
8.500000
  0
CIRCLE
  8
1
 62
7
  6
CONTINUOUS
 10
366.688404
 20
435.000000
 40
7.500000
  0
LINE
  8
1
 62
7
  6
DASHDOT
 10
366.688404
 20
447.000000
 11
366.688404
 21
423.000000
  0
ARC
  8
1
 62
7
  6
CONTINUOUS
 10
366.688404
 20
435.000000
 40
9.000000
 50
-64.416998
 51
115.583002
  0
ARC
  8
1
 62
7
  6
CONTINUOUS
 10
366.688404
 20
435.000000
 40
10.000000
 50
-90.258931
 51
90.258931
  0
CIRCLE
  8
1
 62
7
  6
CONTINUOUS
 10
363.938404
 20
430.236860
 40
1.050000
  0
CIRCLE
  8
1
 62
7
  6
CONTINUOUS
 10
369.438404
 20
439.763140
 40
1.050000
  0
LINE
  8
1
 62
7
  6
CONTINUOUS
 10
370.574768
 20
426.882354
 11
311.045364
 21
398.382354
  0
LINE
  8
1
 62
7
  6
CONTINUOUS
 10
303.272636
 20
414.617646
 11
362.802041
 21
443.117646
  0
LINE
  8
1
 62
7
  6
CONTINUOUS
 10
370.574768
 20
443.117646
 11
311.045364
 21
471.617646
  0
CIRCLE
  8
1
 62
7
  6
CONTINUOUS
 10
304.409000
 20
458.736860
 40
1.050000
  0
CIRCLE
  8
1
 62
7
  6
CONTINUOUS
 10
309.909000
 20
468.263140
 40
1.050000
  0
CIRCLE
  8
1
 62
7
  6
CONTINUOUS
 10
304.409000
 20
401.736860
 40
1.050000
  0
CIRCLE
  8
1
 62
7
  6
CONTINUOUS
 10
309.909000
 20
411.263140
 40
1.050000
  0
LINE
  8
1
 62
7
  6
CONTINUOUS
 10
307.159000
 20
453.521738
 11
345.846299
 21
435.000000
  0
ARC
  8
1
 62
7
  6
CONTINUOUS
 10
307.159000
 20
406.500000
 40
9.000000
 50
115.583002
 51
-64.416998
  0
LINE
  8
1
 62
7
  6
CONTINUOUS
 10
307.159000
 20
416.478262
 11
268.471701
 21
435.000000
  0
LINE
  8
1
 62
7
  6
DASHDOT
 10
444.159000
 20
463.500000
 11
470.159000
 21
463.500000
  0
LINE
  8
1
 62
7
  6
DASHDOT
 10
457.159000
 20
450.500000
 11
457.159000
 21
476.500000
  0
LINE
  8
1
 62
7
  6
DASHDOT
 10
444.159000
 20
406.500000
 11
470.159000
 21
406.500000
  0
LINE
  8
1
 62
7
  6
DASHDOT
 10
457.159000
 20
419.500000
 11
457.159000
 21
393.500000
  0
CIRCLE
  8
1
 62
7
  6
CONTINUOUS
 10
397.629596
 20
435.000000
 40
8.500000
  0
CIRCLE
  8
1
 62
7
  6
CONTINUOUS
 10
397.629596
 20
435.000000
 40
7.500000
  0
CIRCLE
  8
1
 62
7
  6
CONTINUOUS
 10
457.159000
 20
406.500000
 40
7.500000
  0
CIRCLE
  8
1
 62
7
  6
CONTINUOUS
 10
457.159000
 20
406.500000
 40
8.500000
  0
CIRCLE
  8
1
 62
7
  6
CONTINUOUS
 10
457.159000
 20
463.500000
 40
8.500000
  0
CIRCLE
  8
1
 62
7
  6
CONTINUOUS
 10
457.159000
 20
463.500000
 40
7.500000
  0
LINE
  8
1
 62
7
  6
DASHDOT
 10
397.629596
 20
423.000000
 11
397.629596
 21
447.000000
  0
LINE
  8
1
 62
7
  6
CONTINUOUS
 10
393.743232
 20
443.117646
 11
453.272636
 21
471.617646
  0
LINE
  8
1
 62
7
  6
CONTINUOUS
 10
461.045364
 20
455.382354
 11
401.515959
 21
426.882354
  0
LINE
  8
1
 62
7
  6
CONTINUOUS
 10
393.743232
 20
426.882354
 11
453.272636
 21
398.382354
  0
ARC
  8
1
 62
7
  6
CONTINUOUS
 10
397.629596
 20
435.000000
 40
9.000000
 50
115.583002
 51
-64.416998
  0
ARC
  8
1
 62
7
  6
CONTINUOUS
 10
397.629596
 20
435.000000
 40
10.000000
 50
89.741069
 51
-89.741069
  0
ARC
  8
1
 62
7
  6
CONTINUOUS
 10
457.159000
 20
406.500000
 40
11.000000
 50
-150.679803
 51
-120.272641
  0
ARC
  8
1
 62
7
  6
CONTINUOUS
 10
457.159000
 20
463.500000
 40
9.000000
 50
-64.416998
 51
115.583002
  0
ARC
  8
1
 62
7
  6
CONTINUOUS
 10
457.159000
 20
463.500000
 40
11.000000
 50
120.272641
 51
150.679803
  0
CIRCLE
  8
1
 62
7
  6
CONTINUOUS
 10
400.379596
 20
439.763140
 40
1.050000
  0
CIRCLE
  8
1
 62
7
  6
CONTINUOUS
 10
394.879596
 20
430.236860
 40
1.050000
  0
CIRCLE
  8
1
 62
7
  6
CONTINUOUS
 10
516.688404
 20
435.000000
 40
8.500000
  0
CIRCLE
  8
1
 62
7
  6
CONTINUOUS
 10
516.688404
 20
435.000000
 40
7.500000
  0
ARC
  8
1
 62
7
  6
CONTINUOUS
 10
516.688404
 20
435.000000
 40
9.000000
 50
-64.416998
 51
115.583002
  0
ARC
  8
1
 62
7
  6
CONTINUOUS
 10
516.688404
 20
435.000000
 40
10.000000
 50
-90.258931
 51
90.258931
  0
CIRCLE
  8
1
 62
7
  6
CONTINUOUS
 10
513.938404
 20
430.236860
 40
1.050000
  0
CIRCLE
  8
1
 62
7
  6
CONTINUOUS
 10
519.438404
 20
439.763140
 40
1.050000
  0
LINE
  8
1
 62
7
  6
CONTINUOUS
 10
520.574768
 20
426.882354
 11
461.045364
 21
398.382354
  0
LINE
  8
1
 62
7
  6
CONTINUOUS
 10
453.272636
 20
414.617646
 11
512.802041
 21
443.117646
  0
LINE
  8
1
 62
7
  6
CONTINUOUS
 10
520.574768
 20
443.117646
 11
461.045364
 21
471.617646
  0
CIRCLE
  8
1
 62
7
  6
CONTINUOUS
 10
454.409000
 20
458.736860
 40
1.050000
  0
CIRCLE
  8
1
 62
7
  6
CONTINUOUS
 10
459.909000
 20
468.263140
 40
1.050000
  0
CIRCLE
  8
1
 62
7
  6
CONTINUOUS
 10
454.409000
 20
401.736860
 40
1.050000
  0
CIRCLE
  8
1
 62
7
  6
CONTINUOUS
 10
459.909000
 20
411.263140
 40
1.050000
  0
LINE
  8
1
 62
7
  6
CONTINUOUS
 10
457.159000
 20
453.521738
 11
495.846299
 21
435.000000
  0
ARC
  8
1
 62
7
  6
CONTINUOUS
 10
457.159000
 20
406.500000
 40
9.000000
 50
115.583002
 51
-64.416998
  0
LINE
  8
1
 62
7
  6
CONTINUOUS
 10
457.159000
 20
416.478262
 11
418.471701
 21
435.000000
  0
LINE
  8
1
 62
7
  6
CONTINUOUS
 10
373.688404
 20
442.500000
 11
373.302783
 21
442.500000
  0
LINE
  8
1
 62
7
  6
CONTINUOUS
 10
373.688404
 20
427.500000
 11
373.302783
 21
427.500000
  0
LINE
  8
1
 62
7
  6
CONTINUOUS
 10
375.688404
 20
449.200000
 11
375.688404
 21
439.358899
  0
LINE
  8
1
 62
7
  6
CONTINUOUS
 10
375.388404
 20
449.500000
 11
375.688404
 21
449.200000
  0
LINE
  8
1
 62
7
  6
CONTINUOUS
 10
373.688404
 20
442.141428
 11
373.688404
 21
449.200000
  0
LINE
  8
1
 62
7
  6
CONTINUOUS
 10
373.988404
 20
449.500000
 11
375.388404
 21
449.500000
  0
LINE
  8
1
 62
7
  6
CONTINUOUS
 10
373.688404
 20
449.200000
 11
373.988404
 21
449.500000
  0
LINE
  8
1
 62
7
  6
CONTINUOUS
 10
373.688404
 20
420.800000
 11
373.688404
 21
427.858572
  0
LINE
  8
1
 62
7
  6
CONTINUOUS
 10
373.988404
 20
420.500000
 11
373.688404
 21
420.800000
  0
LINE
  8
1
 62
7
  6
CONTINUOUS
 10
375.688404
 20
430.641101
 11
375.688404
 21
420.800000
  0
LINE
  8
1
 62
7
  6
CONTINUOUS
 10
375.388404
 20
420.500000
 11
373.988404
 21
420.500000
  0
LINE
  8
1
 62
7
  6
CONTINUOUS
 10
375.688404
 20
420.800000
 11
375.388404
 21
420.500000
  0
LINE
  8
1
 62
7
  6
CONTINUOUS
 10
373.988404
 20
441.834471
 11
373.988404
 21
449.500000
  0
LINE
  8
1
 62
7
  6
CONTINUOUS
 10
373.988404
 20
420.500000
 11
373.988404
 21
428.165529
  0
LINE
  8
1
 62
7
  6
CONTINUOUS
 10
375.388404
 20
430.069483
 11
375.388404
 21
420.500000
  0
LINE
  8
1
 62
7
  6
CONTINUOUS
 10
375.388404
 20
449.500000
 11
375.388404
 21
439.930517
  0
LINE
  8
1
 62
7
  6
CONTINUOUS
 10
384.259096
 20
447.999999
 11
384.259096
 21
422.000001
  0
LINE
  8
1
 62
7
  6
CONTINUOUS
 10
384.759096
 20
447.999999
 11
387.559096
 21
447.999999
  0
LINE
  8
1
 62
7
  6
CONTINUOUS
 10
387.559096
 20
447.999999
 11
387.559096
 21
422.000001
  0
LINE
  8
1
 62
7
  6
CONTINUOUS
 10
384.759096
 20
422.000001
 11
387.559096
 21
422.000001
  0
LINE
  8
1
 62
7
  6
CONTINUOUS
 10
384.759096
 20
422.000001
 11
384.759096
 21
447.999999
  0
ARC
  8
1
 62
7
  6
CONTINUOUS
 10
386.159096
 20
444.500001
 40
2.300000
 50
127.495250
 51
145.698847
  0
ARC
  8
1
 62
7
  6
CONTINUOUS
 10
386.159096
 20
444.500001
 40
2.300000
 50
34.301153
 51
52.504750
  0
ARC
  8
1
 62
7
  6
CONTINUOUS
 10
386.159096
 20
435.000000
 40
2.300000
 50
127.495250
 51
145.698847
  0
ARC
  8
1
 62
7
  6
CONTINUOUS
 10
386.159096
 20
435.000000
 40
2.300000
 50
-145.698847
 51
-127.495250
  0
ARC
  8
1
 62
7
  6
CONTINUOUS
 10
386.159096
 20
441.717514
 40
2.300000
 50
-145.698847
 51
-127.495250
  0
ARC
  8
1
 62
7
  6
CONTINUOUS
 10
386.159096
 20
441.717514
 40
2.300000
 50
-52.504750
 51
-34.301153
  0
ARC
  8
1
 62
7
  6
CONTINUOUS
 10
386.159096
 20
441.717514
 40
2.300000
 50
34.301153
 51
52.504750
  0
ARC
  8
1
 62
7
  6
CONTINUOUS
 10
386.159096
 20
441.717514
 40
2.300000
 50
127.495250
 51
145.698847
  0
ARC
  8
1
 62
7
  6
CONTINUOUS
 10
386.159096
 20
444.500001
 40
2.300000
 50
-145.698847
 51
-142.779189
  0
ARC
  8
1
 62
7
  6
CONTINUOUS
 10
386.159096
 20
444.500001
 40
2.300000
 50
-37.220811
 51
-34.301153
  0
ARC
  8
1
 62
7
  6
CONTINUOUS
 10
386.159096
 20
425.499999
 40
2.300000
 50
-145.698847
 51
-127.495250
  0
ARC
  8
1
 62
7
  6
CONTINUOUS
 10
386.159096
 20
425.499999
 40
2.300000
 50
-52.504750
 51
-34.301153
  0
ARC
  8
1
 62
7
  6
CONTINUOUS
 10
386.159096
 20
428.282486
 40
2.300000
 50
127.495250
 51
145.698847
  0
ARC
  8
1
 62
7
  6
CONTINUOUS
 10
386.159096
 20
428.282486
 40
2.300000
 50
34.301153
 51
52.504750
  0
ARC
  8
1
 62
7
  6
CONTINUOUS
 10
386.159096
 20
428.282486
 40
2.300000
 50
-52.504750
 51
-34.301153
  0
ARC
  8
1
 62
7
  6
CONTINUOUS
 10
386.159096
 20
428.282486
 40
2.300000
 50
-145.698847
 51
-127.495250
  0
ARC
  8
1
 62
7
  6
CONTINUOUS
 10
386.159096
 20
425.499999
 40
2.300000
 50
142.779189
 51
145.698847
  0
ARC
  8
1
 62
7
  6
CONTINUOUS
 10
386.159096
 20
425.499999
 40
2.300000
 50
34.301153
 51
37.220811
  0
LINE
  8
1
 62
7
  6
CONTINUOUS
 10
381.988597
 20
447.999999
 11
384.259096
 21
447.999999
  0
ARC
  8
1
 62
7
  6
CONTINUOUS
 10
381.988596
 20
447.700001
 40
0.300000
 50
90.000000
 51
180.000000
  0
LINE
  8
1
 62
7
  6
CONTINUOUS
 10
381.988597
 20
422.000001
 11
384.259096
 21
422.000001
  0
ARC
  8
1
 62
7
  6
CONTINUOUS
 10
381.988596
 20
422.299999
 40
0.300000
 50
180.000000
 51
-90.000000
  0
LINE
  8
1
 62
7
  6
CONTINUOUS
 10
381.688596
 20
422.299999
 11
381.688596
 21
447.700001
  0
LINE
  8
1
 62
7
  6
CONTINUOUS
 10
388.059096
 20
447.999999
 11
390.329595
 21
447.999999
  0
ARC
  8
1
 62
7
  6
CONTINUOUS
 10
390.329596
 20
447.700001
 40
0.300000
 50
0.000000
 51
90.000000
  0
LINE
  8
1
 62
7
  6
CONTINUOUS
 10
388.059096
 20
422.000001
 11
390.329595
 21
422.000001
  0
ARC
  8
1
 62
7
  6
CONTINUOUS
 10
390.329596
 20
422.299999
 40
0.300000
 50
-90.000000
 51
0.000000
  0
LINE
  8
1
 62
7
  6
CONTINUOUS
 10
390.629596
 20
427.858572
 11
390.629596
 21
422.299999
  0
LINE
  8
1
 62
7
  6
CONTINUOUS
 10
390.629596
 20
447.700001
 11
390.629596
 21
442.141428
  0
LINE
  8
1
 62
7
  6
CONTINUOUS
 10
388.059096
 20
437.899229
 11
388.059096
 21
447.999999
  0
LINE
  8
1
 62
7
  6
CONTINUOUS
 10
388.059096
 20
422.000001
 11
388.059096
 21
432.100771
  0
ARC
  8
1
 62
7
  6
CONTINUOUS
 10
386.159096
 20
435.000000
 40
2.300000
 50
45.683343
 51
52.504750
  0
ARC
  8
1
 62
7
  6
CONTINUOUS
 10
386.159096
 20
435.000000
 40
2.300000
 50
-52.504750
 51
-45.683343
  0
LINE
  8
1
 62
7
  6
CONTINUOUS
 10
375.988596
 20
447.000000
 11
375.688596
 21
446.700000
  0
LINE
  8
1
 62
7
  6
CONTINUOUS
 10
375.688596
 20
423.300000
 11
375.988596
 21
423.000000
  0
LINE
  8
1
 62
7
  6
CONTINUOUS
 10
381.388596
 20
423.000000
 11
381.688596
 21
423.300000
  0
LINE
  8
1
 62
7
  6
CONTINUOUS
 10
381.388596
 20
447.000000
 11
381.688596
 21
446.700000
  0
LINE
  8
1
 62
7
  6
CONTINUOUS
 10
381.388596
 20
447.000000
 11
375.988596
 21
447.000000
  0
LINE
  8
1
 62
7
  6
CONTINUOUS
 10
375.988596
 20
423.000000
 11
381.388596
 21
423.000000
  0
LINE
  8
1
 62
7
  6
CONTINUOUS
 10
381.388596
 20
423.000000
 11
381.388596
 21
447.000000
  0
LINE
  8
1
 62
7
  6
CONTINUOUS
 10
375.988596
 20
431.324888
 11
375.988596
 21
423.000000
  0
LINE
  8
1
 62
7
  6
CONTINUOUS
 10
375.988596
 20
447.000000
 11
375.988596
 21
438.675112
  0
LINE
  8
1
 62
7
  6
CONTINUOUS
 10
483.313793
 20
429.000000
 11
431.004207
 21
429.000000
  0
LINE
  8
1
 62
7
  6
CONTINUOUS
 10
431.004207
 20
441.000000
 11
483.313793
 21
441.000000
  0
LINE
  8
1
 62
7
  6
CONTINUOUS
 10
333.313793
 20
429.000000
 11
281.004207
 21
429.000000
  0
LINE
  8
1
 62
7
  6
CONTINUOUS
 10
333.313793
 20
441.000000
 11
281.004207
 21
441.000000
  0
LINE
  8
1
 62
7
  6
CONTINUOUS
 10
334.358169
 20
440.500000
 11
279.959831
 21
440.500000
  0
LINE
  8
1
 62
7
  6
CONTINUOUS
 10
334.358169
 20
429.500000
 11
279.959831
 21
429.500000
  0
LINE
  8
1
 62
7
  6
CONTINUOUS
 10
428.915456
 20
440.000000
 11
485.402544
 21
440.000000
  0
LINE
  8
1
 62
7
  6
CONTINUOUS
 10
485.402544
 20
430.000000
 11
428.915456
 21
430.000000
  0
LINE
  8
1
 62
7
  6
CONTINUOUS
 10
335.402544
 20
440.000000
 11
278.915456
 21
440.000000
  0
LINE
  8
1
 62
7
  6
CONTINUOUS
 10
278.915456
 20
430.000000
 11
335.402544
 21
430.000000
  0
ARC
  8
1
 62
7
  6
CONTINUOUS
 10
307.159000
 20
406.500000
 40
11.000000
 50
80.486201
 51
99.513799
  0
ARC
  8
1
 62
7
  6
CONTINUOUS
 10
307.159000
 20
406.500000
 40
11.000000
 50
-59.727359
 51
-29.320197
  0
ARC
  8
1
 62
7
  6
CONTINUOUS
 10
307.159000
 20
463.500000
 40
11.000000
 50
29.320197
 51
59.727359
  0
ARC
  8
1
 62
7
  6
CONTINUOUS
 10
307.159000
 20
463.500000
 40
11.000000
 50
-99.513799
 51
-80.486201
  0
ARC
  8
1
 62
7
  6
CONTINUOUS
 10
457.159000
 20
463.500000
 40
11.000000
 50
29.320197
 51
59.727359
  0
ARC
  8
1
 62
7
  6
CONTINUOUS
 10
457.159000
 20
463.500000
 40
11.000000
 50
-99.513799
 51
-80.486201
  0
ARC
  8
1
 62
7
  6
CONTINUOUS
 10
457.159000
 20
406.500000
 40
11.000000
 50
80.486201
 51
99.513799
  0
ARC
  8
1
 62
7
  6
CONTINUOUS
 10
457.159000
 20
406.500000
 40
11.000000
 50
-59.727359
 51
-29.320197
  0
LINE
  8
1
 62
7
  6
CONTINUOUS
 10
522.688404
 20
446.485281
 11
522.188404
 21
446.985281
  0
LINE
  8
1
 62
7
  6
CONTINUOUS
 10
522.688404
 20
443.000000
 11
522.688404
 21
446.485281
  0
LINE
  8
1
 62
7
  6
CONTINUOUS
 10
513.540616
 20
446.485281
 11
522.688404
 21
446.485281
  0
LINE
  8
1
 62
7
  6
CONTINUOUS
 10
522.688404
 20
423.514719
 11
522.188404
 21
423.014719
  0
LINE
  8
1
 62
7
  6
CONTINUOUS
 10
522.688404
 20
427.000000
 11
522.688404
 21
423.514719
  0
LINE
  8
1
 62
7
  6
CONTINUOUS
 10
513.540616
 20
423.514719
 11
522.688404
 21
423.514719
  0
LINE
  8
1
 62
7
  6
CONTINUOUS
 10
522.188404
 20
423.014719
 11
512.496241
 21
423.014719
  0
LINE
  8
1
 62
7
  6
CONTINUOUS
 10
526.688404
 20
454.985281
 11
506.688404
 21
454.985281
  0
LINE
  8
1
 62
7
  6
CONTINUOUS
 10
508.688404
 20
461.985281
 11
524.688404
 21
461.985281
  0
LINE
  8
1
 62
7
  6
CONTINUOUS
 10
508.688404
 20
461.985281
 11
506.688404
 21
454.985281
  0
LINE
  8
1
 62
7
  6
CONTINUOUS
 10
524.688404
 20
461.985281
 11
526.688404
 21
454.985281
  0
LINE
  8
1
 62
7
  6
CONTINUOUS
 10
523.688404
 20
447.485281
 11
523.688404
 21
452.985281
  0
LINE
  8
1
 62
7
  6
CONTINUOUS
 10
523.688404
 20
447.485281
 11
523.188404
 21
446.985281
  0
LINE
  8
1
 62
7
  6
CONTINUOUS
 10
526.688404
 20
453.285281
 11
526.688404
 21
454.985281
  0
LINE
  8
1
 62
7
  6
CONTINUOUS
 10
526.388404
 20
452.985281
 11
526.688404
 21
453.285281
  0
LINE
  8
1
 62
7
  6
CONTINUOUS
 10
506.688404
 20
454.985281
 11
506.688404
 21
453.285281
  0
LINE
  8
1
 62
7
  6
CONTINUOUS
 10
506.988404
 20
452.985281
 11
526.388404
 21
452.985281
  0
LINE
  8
1
 62
7
  6
CONTINUOUS
 10
506.688404
 20
453.285281
 11
506.988404
 21
452.985281
  0
LINE
  8
1
 62
7
  6
CONTINUOUS
 10
506.688404
 20
453.285281
 11
526.688404
 21
453.285281
  0
ARC
  8
1
 62
7
  6
CONTINUOUS
 10
537.158740
 20
462.567865
 40
1.307883
 50
-67.744453
 51
-36.977895
  0
ARC
  8
1
 62
7
  6
CONTINUOUS
 10
536.776717
 20
462.873615
 40
1.797039
 50
-37.439076
 51
-12.455052
  0
ARC
  8
1
 62
7
  6
CONTINUOUS
 10
535.961368
 20
463.096524
 40
2.641605
 50
-13.362019
 51
5.883683
  0
ARC
  8
1
 62
7
  6
CONTINUOUS
 10
535.236373
 20
463.056598
 40
3.367051
 50
5.294849
 51
21.562398
  0
ARC
  8
1
 62
7
  6
CONTINUOUS
 10
535.136126
 20
463.032589
 40
3.469137
 50
21.322695
 51
37.168755
  0
ARC
  8
1
 62
7
  6
CONTINUOUS
 10
535.613633
 20
463.391401
 40
2.871850
 50
37.220023
 51
55.100450
  0
ARC
  8
1
 62
7
  6
CONTINUOUS
 10
536.121849
 20
464.096753
 40
2.002625
 50
55.479727
 51
78.181128
  0
ARC
  8
1
 62
7
  6
CONTINUOUS
 10
536.267656
 20
464.693714
 40
1.388606
 50
79.024852
 51
108.193547
  0
LINE
  8
1
 62
7
  6
CONTINUOUS
 10
526.200480
 20
456.693017
 11
537.654798
 21
461.355661
  0
LINE
  8
1
 62
7
  6
CONTINUOUS
 10
524.818782
 20
461.528959
 11
535.834094
 21
466.012900
  0
LINE
  8
1
 62
7
  6
DASHDOT
 10
523.657224
 20
458.356939
 11
540.202688
 21
465.092008
  0
LINE
  8
1
 62
7
  6
CONTINUOUS
 10
509.688404
 20
452.985281
 11
509.688404
 21
448.329547
  0
LINE
  8
1
 62
7
  6
CONTINUOUS
 10
511.451865
 20
447.485281
 11
523.688404
 21
447.485281
  0
LINE
  8
1
 62
7
  6
CONTINUOUS
 10
512.496241
 20
446.985281
 11
523.188404
 21
446.985281
  0
LINE
  8
1
 62
7
  6
DASHDOT
 10
516.688404
 20
463.985281
 11
516.688404
 21
421.014719
  0
LINE
  8
1
 62
7
  6
CONTINUOUS
 10
535.288596
 20
446.000000
 11
544.688596
 21
446.000000
  0
LINE
  8
1
 62
7
  6
CONTINUOUS
 10
534.688596
 20
445.400000
 11
535.288596
 21
446.000000
  0
LINE
  8
1
 62
7
  6
CONTINUOUS
 10
544.688596
 20
424.000000
 11
535.288596
 21
424.000000
  0
LINE
  8
1
 62
7
  6
CONTINUOUS
 10
534.688596
 20
424.600000
 11
534.688596
 21
445.400000
  0
LINE
  8
1
 62
7
  6
CONTINUOUS
 10
535.288596
 20
424.000000
 11
534.688596
 21
424.600000
  0
LINE
  8
1
 62
7
  6
CONTINUOUS
 10
535.288596
 20
424.000000
 11
535.288596
 21
446.000000
  0
LINE
  8
1
 62
7
  6
CONTINUOUS
 10
544.688596
 20
406.000000
 11
545.688596
 21
405.000000
  0
LINE
  8
1
 62
7
  6
CONTINUOUS
 10
545.688596
 20
405.000000
 11
561.688596
 21
405.000000
  0
LINE
  8
1
 62
7
  6
CONTINUOUS
 10
562.688596
 20
406.000000
 11
561.688596
 21
405.000000
  0
LINE
  8
1
 62
7
  6
CONTINUOUS
 10
544.688596
 20
464.000000
 11
544.688596
 21
406.000000
  0
LINE
  8
1
 62
7
  6
CONTINUOUS
 10
545.688596
 20
465.000000
 11
544.688596
 21
464.000000
  0
LINE
  8
1
 62
7
  6
CONTINUOUS
 10
562.688596
 20
406.000000
 11
562.688596
 21
464.000000
  0
LINE
  8
1
 62
7
  6
CONTINUOUS
 10
561.688596
 20
465.000000
 11
545.688596
 21
465.000000
  0
LINE
  8
1
 62
7
  6
CONTINUOUS
 10
562.688596
 20
464.000000
 11
561.688596
 21
465.000000
  0
LINE
  8
1
 62
7
  6
CONTINUOUS
 10
561.688596
 20
405.000000
 11
561.688596
 21
465.000000
  0
LINE
  8
1
 62
7
  6
CONTINUOUS
 10
545.688596
 20
465.000000
 11
545.688596
 21
405.000000
  0
LINE
  8
1
 62
7
  6
CONTINUOUS
 10
560.688596
 20
405.000000
 11
560.688596
 21
465.000000
  0
LINE
  8
1
 62
7
  6
CONTINUOUS
 10
546.688596
 20
465.000000
 11
546.688596
 21
405.000000
  0
LINE
  8
1
 62
7
  6
CONTINUOUS
 10
549.955837
 20
454.134868
 11
546.688596
 21
454.134868
  0
LINE
  8
1
 62
7
  6
CONTINUOUS
 10
546.688596
 20
456.134868
 11
555.197216
 21
456.134868
  0
LINE
  8
1
 62
7
  6
CONTINUOUS
 10
560.438596
 20
458.134868
 11
546.688596
 21
458.134868
  0
LINE
  8
1
 62
7
  6
CONTINUOUS
 10
546.688596
 20
460.134868
 11
560.688596
 21
460.134868
  0
LINE
  8
1
 62
7
  6
CONTINUOUS
 10
560.688596
 20
462.134868
 11
546.688596
 21
462.134868
  0
LINE
  8
1
 62
7
  6
CONTINUOUS
 10
546.688596
 20
464.134868
 11
560.688596
 21
464.134868
  0
LINE
  8
1
 62
7
  6
CONTINUOUS
 10
558.688596
 20
465.000000
 11
558.688596
 21
457.467105
  0
LINE
  8
1
 62
7
  6
CONTINUOUS
 10
556.688596
 20
456.703947
 11
556.688596
 21
465.000000
  0
LINE
  8
1
 62
7
  6
CONTINUOUS
 10
554.688596
 20
465.000000
 11
554.688596
 21
455.940789
  0
LINE
  8
1
 62
7
  6
CONTINUOUS
 10
552.688596
 20
455.177632
 11
552.688596
 21
465.000000
  0
LINE
  8
1
 62
7
  6
CONTINUOUS
 10
550.688596
 20
465.000000
 11
550.688596
 21
454.414474
  0
LINE
  8
1
 62
7
  6
CONTINUOUS
 10
548.688596
 20
453.651316
 11
548.688596
 21
465.000000
  0
LINE
  8
1
 62
7
  6
CONTINUOUS
 10
557.421354
 20
415.865132
 11
560.688596
 21
415.865132
  0
LINE
  8
1
 62
7
  6
CONTINUOUS
 10
560.688596
 20
413.865132
 11
552.179975
 21
413.865132
  0
LINE
  8
1
 62
7
  6
CONTINUOUS
 10
546.938596
 20
411.865132
 11
560.688596
 21
411.865132
  0
LINE
  8
1
 62
7
  6
CONTINUOUS
 10
560.688596
 20
409.865132
 11
546.688596
 21
409.865132
  0
LINE
  8
1
 62
7
  6
CONTINUOUS
 10
546.688596
 20
407.865132
 11
560.688596
 21
407.865132
  0
LINE
  8
1
 62
7
  6
CONTINUOUS
 10
560.688596
 20
405.865132
 11
546.688596
 21
405.865132
  0
LINE
  8
1
 62
7
  6
CONTINUOUS
 10
548.688596
 20
405.000000
 11
548.688596
 21
412.532895
  0
LINE
  8
1
 62
7
  6
CONTINUOUS
 10
550.688596
 20
413.296053
 11
550.688596
 21
405.000000
  0
LINE
  8
1
 62
7
  6
CONTINUOUS
 10
552.688596
 20
405.000000
 11
552.688596
 21
414.059211
  0
LINE
  8
1
 62
7
  6
CONTINUOUS
 10
554.688596
 20
414.822368
 11
554.688596
 21
405.000000
  0
LINE
  8
1
 62
7
  6
CONTINUOUS
 10
556.688596
 20
405.000000
 11
556.688596
 21
415.585526
  0
LINE
  8
1
 62
7
  6
CONTINUOUS
 10
558.688596
 20
416.348684
 11
558.688596
 21
405.000000
  0
LINE
  8
1
 62
7
  6
CONTINUOUS
 10
534.388596
 20
441.000000
 11
534.688596
 21
440.700000
  0
LINE
  8
1
 62
7
  6
CONTINUOUS
 10
534.388596
 20
429.000000
 11
534.688596
 21
429.300000
  0
LINE
  8
1
 62
7
  6
CONTINUOUS
 10
534.388596
 20
441.000000
 11
534.388596
 21
429.000000
  0
LINE
  8
1
 62
7
  6
CONTINUOUS
 10
524.688404
 20
441.000000
 11
534.388596
 21
441.000000
  0
LINE
  8
1
 62
7
  6
CONTINUOUS
 10
534.388596
 20
429.000000
 11
524.688404
 21
429.000000
  0
LINE
  8
1
 62
7
  6
DASHDOT
 10
567.688596
 20
435.000000
 11
232.629596
 21
435.000000
  0
LINE
  8
1
 62
7
  6
CONTINUOUS
 10
272.659000
 20
485.000000
 11
272.159000
 21
484.500000
  0
LINE
  8
1
 62
7
  6
CONTINUOUS
 10
272.159000
 20
484.500000
 11
272.159000
 21
473.500000
  0
LINE
  8
1
 62
7
  6
CONTINUOUS
 10
272.659000
 20
473.000000
 11
272.159000
 21
473.500000
  0
LINE
  8
1
 62
7
  6
CONTINUOUS
 10
491.659000
 20
485.000000
 11
272.659000
 21
485.000000
  0
LINE
  8
1
 62
7
  6
CONTINUOUS
 10
492.159000
 20
484.500000
 11
491.659000
 21
485.000000
  0
LINE
  8
1
 62
7
  6
CONTINUOUS
 10
272.659000
 20
473.000000
 11
491.659000
 21
473.000000
  0
LINE
  8
1
 62
7
  6
CONTINUOUS
 10
492.159000
 20
473.500000
 11
492.159000
 21
484.500000
  0
LINE
  8
1
 62
7
  6
CONTINUOUS
 10
491.659000
 20
473.000000
 11
492.159000
 21
473.500000
  0
LINE
  8
1
 62
7
  6
CONTINUOUS
 10
491.659000
 20
397.000000
 11
492.159000
 21
396.500000
  0
LINE
  8
1
 62
7
  6
CONTINUOUS
 10
492.159000
 20
385.500000
 11
492.159000
 21
396.500000
  0
LINE
  8
1
 62
7
  6
CONTINUOUS
 10
491.659000
 20
385.000000
 11
492.159000
 21
385.500000
  0
LINE
  8
1
 62
7
  6
CONTINUOUS
 10
272.659000
 20
385.000000
 11
491.659000
 21
385.000000
  0
LINE
  8
1
 62
7
  6
CONTINUOUS
 10
272.159000
 20
385.500000
 11
272.659000
 21
385.000000
  0
LINE
  8
1
 62
7
  6
CONTINUOUS
 10
272.659000
 20
397.000000
 11
491.659000
 21
397.000000
  0
LINE
  8
1
 62
7
  6
CONTINUOUS
 10
272.159000
 20
396.500000
 11
272.159000
 21
385.500000
  0
LINE
  8
1
 62
7
  6
CONTINUOUS
 10
272.659000
 20
397.000000
 11
272.159000
 21
396.500000
  0
LINE
  8
1
 62
7
  6
CONTINUOUS
 10
269.688404
 20
434.417497
 11
269.688404
 21
435.582503
  0
LINE
  8
1
 62
7
  6
CONTINUOUS
 10
270.188404
 20
434.178120
 11
270.188404
 21
435.821880
  0
LINE
  8
1
 62
7
  6
DIVIDE
 10
586.224946
 20
481.000000
 11
576.824946
 21
481.000000
  0
LINE
  8
1
 62
7
  6
DIVIDE
 10
576.824946
 20
481.000000
 11
576.224946
 21
480.400000
  0
LINE
  8
1
 62
7
  6
DIVIDE
 10
586.224946
 20
499.000000
 11
587.224946
 21
500.000000
  0
LINE
  8
1
 62
7
  6
DIVIDE
 10
603.224946
 20
500.000000
 11
587.224946
 21
500.000000
  0
LINE
  8
1
 62
7
  6
DIVIDE
 10
604.224946
 20
499.000000
 11
603.224946
 21
500.000000
  0
LINE
  8
1
 62
7
  6
DIVIDE
 10
576.824946
 20
459.000000
 11
586.224946
 21
459.000000
  0
LINE
  8
1
 62
7
  6
DIVIDE
 10
576.224946
 20
459.600000
 11
576.824946
 21
459.000000
  0
LINE
  8
1
 62
7
  6
DIVIDE
 10
587.224946
 20
440.000000
 11
586.224946
 21
441.000000
  0
LINE
  8
1
 62
7
  6
DIVIDE
 10
587.224946
 20
440.000000
 11
603.224946
 21
440.000000
  0
LINE
  8
1
 62
7
  6
DIVIDE
 10
603.224946
 20
440.000000
 11
604.224946
 21
441.000000
  0
LINE
  8
1
 62
7
  6
DIVIDE
 10
604.224946
 20
441.000000
 11
604.224946
 21
499.000000
  0
LINE
  8
1
 62
7
  6
DIVIDE
 10
576.224946
 20
480.400000
 11
576.224946
 21
459.600000
  0
LINE
  8
1
 62
7
  6
DIVIDE
 10
586.224946
 20
499.000000
 11
586.224946
 21
441.000000
  0
LINE
  8
1
 62
7
  6
DIVIDE
 10
588.224946
 20
500.000000
 11
588.224946
 21
440.000000
  0
LINE
  8
1
 62
7
  6
DIVIDE
 10
602.224946
 20
440.000000
 11
602.224946
 21
500.000000
  0
LINE
  8
1
 62
7
  6
DIVIDE
 10
587.224946
 20
440.000000
 11
587.224946
 21
500.000000
  0
LINE
  8
1
 62
7
  6
DIVIDE
 10
603.224946
 20
440.000000
 11
603.224946
 21
500.000000
  0
LINE
  8
1
 62
7
  6
DIVIDE
 10
576.824946
 20
481.000000
 11
576.824946
 21
459.000000
  0
LINE
  8
1
 62
7
  6
DIVIDE
 10
576.224946
 20
476.000000
 11
545.724946
 21
476.000000
  0
LINE
  8
1
 62
7
  6
DIVIDE
 10
576.224946
 20
464.000000
 11
565.224946
 21
464.000000
  0
LINE
  8
1
 62
7
  6
DASHDOT
 10
609.224946
 20
470.000000
 11
540.724946
 21
470.000000
  0
LINE
  8
1
 62
7
  6
DASHDOT
 10
382.159000
 20
560.000000
 11
382.159000
 21
380.000000
  0
LINE
  8
1
 62
7
  6
DIVIDE
 10
272.659000
 20
555.000000
 11
272.159000
 21
554.500000
  0
LINE
  8
1
 62
7
  6
DIVIDE
 10
272.159000
 20
554.500000
 11
272.159000
 21
543.500000
  0
LINE
  8
1
 62
7
  6
DIVIDE
 10
491.659000
 20
555.000000
 11
272.659000
 21
555.000000
  0
LINE
  8
1
 62
7
  6
DIVIDE
 10
492.159000
 20
554.500000
 11
491.659000
 21
555.000000
  0
LINE
  8
1
 62
7
  6
DIVIDE
 10
492.159000
 20
543.500000
 11
492.159000
 21
554.500000
  0
LINE
  8
1
 62
7
  6
DASHDOT
 10
382.159000
 20
770.000000
 11
382.159000
 21
600.000000
  0
LINE
  8
1
 62
7
  6
DASHDOT
 10
567.688596
 20
685.000000
 11
232.629596
 21
685.000000
  0
LINE
  8
1
 62
7
  6
CONTINUOUS
 10
238.629596
 20
625.000000
 11
237.629596
 21
626.000000
  0
LINE
  8
1
 62
7
  6
CONTINUOUS
 10
257.629596
 20
626.000000
 11
256.629596
 21
625.000000
  0
LINE
  8
1
 62
7
  6
CONTINUOUS
 10
237.629596
 20
626.000000
 11
257.629596
 21
626.000000
  0
LINE
  8
1
 62
7
  6
CONTINUOUS
 10
238.629596
 20
625.000000
 11
238.629596
 21
621.000000
  0
LINE
  8
1
 62
7
  6
CONTINUOUS
 10
240.129596
 20
620.750000
 11
240.129596
 21
621.000000
  0
LINE
  8
1
 62
7
  6
CONTINUOUS
 10
255.129596
 20
620.750000
 11
255.129596
 21
621.000000
  0
LINE
  8
1
 62
7
  6
CONTINUOUS
 10
239.129596
 20
616.750000
 11
239.129596
 21
615.750000
  0
LINE
  8
1
 62
7
  6
CONTINUOUS
 10
239.129596
 20
615.750000
 11
256.129596
 21
615.750000
  0
LINE
  8
1
 62
7
  6
CONTINUOUS
 10
256.129596
 20
615.750000
 11
256.129596
 21
616.750000
  0
LINE
  8
1
 62
7
  6
CONTINUOUS
 10
239.129596
 20
615.750000
 11
239.129596
 21
613.750000
  0
LINE
  8
1
 62
7
  6
CONTINUOUS
 10
239.129596
 20
613.750000
 11
240.129596
 21
612.750000
  0
LINE
  8
1
 62
7
  6
CONTINUOUS
 10
256.129596
 20
613.750000
 11
256.129596
 21
615.750000
  0
LINE
  8
1
 62
7
  6
CONTINUOUS
 10
240.129596
 20
612.750000
 11
255.129596
 21
612.750000
  0
LINE
  8
1
 62
7
  6
CONTINUOUS
 10
256.129596
 20
613.750000
 11
255.129596
 21
612.750000
  0
LINE
  8
1
 62
7
  6
CONTINUOUS
 10
239.129596
 20
613.750000
 11
256.129596
 21
613.750000
  0
LINE
  8
1
 62
7
  6
CONTINUOUS
 10
238.629596
 20
745.000000
 11
237.629596
 21
744.000000
  0
LINE
  8
1
 62
7
  6
CONTINUOUS
 10
257.629596
 20
744.000000
 11
256.629596
 21
745.000000
  0
LINE
  8
1
 62
7
  6
CONTINUOUS
 10
237.629596
 20
744.000000
 11
257.629596
 21
744.000000
  0
LINE
  8
1
 62
7
  6
CONTINUOUS
 10
238.629596
 20
745.000000
 11
238.629596
 21
749.000000
  0
LINE
  8
1
 62
7
  6
CONTINUOUS
 10
240.129596
 20
749.250000
 11
240.129596
 21
749.000000
  0
LINE
  8
1
 62
7
  6
CONTINUOUS
 10
255.129596
 20
749.250000
 11
255.129596
 21
749.000000
  0
LINE
  8
1
 62
7
  6
CONTINUOUS
 10
239.129596
 20
753.250000
 11
239.129596
 21
754.250000
  0
LINE
  8
1
 62
7
  6
CONTINUOUS
 10
239.129596
 20
754.250000
 11
256.129596
 21
754.250000
  0
LINE
  8
1
 62
7
  6
CONTINUOUS
 10
256.129596
 20
754.250000
 11
256.129596
 21
753.250000
  0
LINE
  8
1
 62
7
  6
CONTINUOUS
 10
239.129596
 20
754.250000
 11
239.129596
 21
756.250000
  0
LINE
  8
1
 62
7
  6
CONTINUOUS
 10
239.129596
 20
756.250000
 11
240.129596
 21
757.250000
  0
LINE
  8
1
 62
7
  6
CONTINUOUS
 10
256.129596
 20
756.250000
 11
256.129596
 21
754.250000
  0
LINE
  8
1
 62
7
  6
CONTINUOUS
 10
240.129596
 20
757.250000
 11
255.129596
 21
757.250000
  0
LINE
  8
1
 62
7
  6
CONTINUOUS
 10
256.129596
 20
756.250000
 11
255.129596
 21
757.250000
  0
LINE
  8
1
 62
7
  6
CONTINUOUS
 10
239.129596
 20
756.250000
 11
256.129596
 21
756.250000
  0
LINE
  8
1
 62
7
  6
CONTINUOUS
 10
238.629596
 20
749.250000
 11
238.629596
 21
753.250000
  0
LINE
  8
1
 62
7
  6
CONTINUOUS
 10
238.629596
 20
620.750000
 11
238.629596
 21
616.750000
  0
LINE
  8
1
 62
7
  6
CONTINUOUS
 10
238.629596
 20
616.750000
 11
272.159000
 21
616.750000
  0
LINE
  8
1
 62
7
  6
CONTINUOUS
 10
238.629596
 20
621.000000
 11
272.159000
 21
621.000000
  0
LINE
  8
1
 62
7
  6
CONTINUOUS
 10
238.629596
 20
620.750000
 11
272.159000
 21
620.750000
  0
LINE
  8
1
 62
7
  6
CONTINUOUS
 10
238.629596
 20
625.000000
 11
272.159000
 21
625.000000
  0
LINE
  8
1
 62
7
  6
CONTINUOUS
 10
238.629596
 20
753.250000
 11
272.159000
 21
753.250000
  0
LINE
  8
1
 62
7
  6
CONTINUOUS
 10
238.629596
 20
749.000000
 11
272.159000
 21
749.000000
  0
LINE
  8
1
 62
7
  6
CONTINUOUS
 10
238.629596
 20
749.250000
 11
272.159000
 21
749.250000
  0
LINE
  8
1
 62
7
  6
CONTINUOUS
 10
238.629596
 20
745.000000
 11
272.159000
 21
745.000000
  0
LINE
  8
1
 62
7
  6
DASHDOT
 10
247.629596
 20
609.750000
 11
247.629596
 21
760.250000
  0
LINE
  8
1
 62
7
  6
DASHDOT
 10
275.159000
 20
660.000000
 11
234.629596
 21
660.000000
  0
LINE
  8
1
 62
7
  6
DASHDOT
 10
275.159000
 20
710.000000
 11
234.629596
 21
710.000000
  0
LINE
  8
1
 62
7
  6
CONTINUOUS
 10
257.629596
 20
715.000000
 11
272.159000
 21
715.000000
  0
LINE
  8
1
 62
7
  6
CONTINUOUS
 10
257.629596
 20
705.000000
 11
272.159000
 21
705.000000
  0
LINE
  8
1
 62
7
  6
CONTINUOUS
 10
257.629596
 20
655.000000
 11
272.159000
 21
655.000000
  0
LINE
  8
1
 62
7
  6
CONTINUOUS
 10
257.629596
 20
665.000000
 11
272.159000
 21
665.000000
  0
LINE
  8
1
 62
7
  6
CONTINUOUS
 10
237.629596
 20
440.000000
 11
242.629596
 21
440.000000
  0
ARC
  8
1
 62
7
  6
CONTINUOUS
 10
237.590807
 20
655.588014
 40
0.589292
 50
-86.225897
 51
-20.607730
  0
ARC
  8
1
 62
7
  6
CONTINUOUS
 10
235.137613
 20
657.214904
 40
3.520420
 50
-31.402463
 51
-12.308026
  0
ARC
  8
1
 62
7
  6
CONTINUOUS
 10
228.425097
 20
659.119474
 40
10.493456
 50
-14.656032
 51
-5.648882
  0
ARC
  8
1
 62
7
  6
CONTINUOUS
 10
221.766691
 20
659.957634
 40
17.202956
 50
-6.244033
 51
0.141104
  0
ARC
  8
1
 62
7
  6
CONTINUOUS
 10
221.132222
 20
660.008543
 40
17.837375
 50
-0.027443
 51
6.130372
  0
ARC
  8
1
 62
7
  6
CONTINUOUS
 10
227.125738
 20
660.647847
 40
11.809862
 50
6.151749
 51
14.153164
  0
ARC
  8
1
 62
7
  6
CONTINUOUS
 10
234.265828
 20
662.435431
 40
4.449432
 50
14.314580
 51
29.395909
  0
ARC
  8
1
 62
7
  6
CONTINUOUS
 10
237.456835
 20
664.231482
 40
0.787697
 50
29.502939
 51
77.330689
  0
ARC
  8
1
 62
7
  6
CONTINUOUS
 10
257.668384
 20
655.588014
 40
0.589292
 50
-159.392270
 51
-93.774103
  0
ARC
  8
1
 62
7
  6
CONTINUOUS
 10
260.121578
 20
657.214904
 40
3.520420
 50
-167.691974
 51
-148.597537
  0
ARC
  8
1
 62
7
  6
CONTINUOUS
 10
266.834094
 20
659.119474
 40
10.493456
 50
-174.351118
 51
-165.343968
  0
ARC
  8
1
 62
7
  6
CONTINUOUS
 10
273.492500
 20
659.957634
 40
17.202956
 50
179.858896
 51
-173.755967
  0
ARC
  8
1
 62
7
  6
CONTINUOUS
 10
274.126969
 20
660.008543
 40
17.837375
 50
173.869628
 51
-179.972557
  0
ARC
  8
1
 62
7
  6
CONTINUOUS
 10
268.133453
 20
660.647847
 40
11.809862
 50
165.846836
 51
173.848251
  0
ARC
  8
1
 62
7
  6
CONTINUOUS
 10
260.993363
 20
662.435431
 40
4.449432
 50
150.604091
 51
165.685420
  0
ARC
  8
1
 62
7
  6
CONTINUOUS
 10
257.802356
 20
664.231482
 40
0.787697
 50
102.669311
 51
150.497061
  0
ARC
  8
1
 62
7
  6
CONTINUOUS
 10
257.668384
 20
714.411986
 40
0.589292
 50
93.774103
 51
159.392270
  0
ARC
  8
1
 62
7
  6
CONTINUOUS
 10
260.121578
 20
712.785096
 40
3.520420
 50
148.597537
 51
167.691974
  0
ARC
  8
1
 62
7
  6
CONTINUOUS
 10
266.834094
 20
710.880526
 40
10.493456
 50
165.343968
 51
174.351118
  0
ARC
  8
1
 62
7
  6
CONTINUOUS
 10
273.492500
 20
710.042366
 40
17.202956
 50
173.755967
 51
-179.858896
  0
ARC
  8
1
 62
7
  6
CONTINUOUS
 10
274.126969
 20
709.991457
 40
17.837375
 50
179.972557
 51
-173.869628
  0
ARC
  8
1
 62
7
  6
CONTINUOUS
 10
268.133453
 20
709.352153
 40
11.809862
 50
-173.848251
 51
-165.846836
  0
ARC
  8
1
 62
7
  6
CONTINUOUS
 10
260.993363
 20
707.564569
 40
4.449432
 50
-165.685420
 51
-150.604091
  0
ARC
  8
1
 62
7
  6
CONTINUOUS
 10
257.802356
 20
705.768518
 40
0.787697
 50
-150.497061
 51
-102.669311
  0
LINE
  8
1
 62
7
  6
CONTINUOUS
 10
257.629596
 20
715.000000
 11
257.629596
 21
744.000000
  0
LINE
  8
1
 62
7
  6
CONTINUOUS
 10
257.629596
 20
665.000000
 11
257.629596
 21
705.000000
  0
LINE
  8
1
 62
7
  6
CONTINUOUS
 10
257.629596
 20
626.000000
 11
257.629596
 21
655.000000
  0
LINE
  8
1
 62
7
  6
CONTINUOUS
 10
237.629596
 20
655.000000
 11
237.629596
 21
626.000000
  0
LINE
  8
1
 62
7
  6
CONTINUOUS
 10
237.629596
 20
664.500000
 11
237.629596
 21
655.500000
  0
LINE
  8
1
 62
7
  6
CONTINUOUS
 10
237.629596
 20
664.500000
 11
237.967760
 21
664.838165
  0
LINE
  8
1
 62
7
  6
CONTINUOUS
 10
237.967760
 20
655.161835
 11
237.629596
 21
655.500000
  0
LINE
  8
1
 62
7
  6
CONTINUOUS
 10
238.129596
 20
664.638887
 11
238.129596
 21
655.361113
  0
ARC
  8
1
 62
7
  6
CONTINUOUS
 10
237.590807
 20
714.411986
 40
0.589292
 50
20.607730
 51
86.225897
  0
ARC
  8
1
 62
7
  6
CONTINUOUS
 10
235.137613
 20
712.785096
 40
3.520420
 50
12.308026
 51
31.402463
  0
ARC
  8
1
 62
7
  6
CONTINUOUS
 10
228.425097
 20
710.880526
 40
10.493456
 50
5.648882
 51
14.656032
  0
ARC
  8
1
 62
7
  6
CONTINUOUS
 10
221.766691
 20
710.042366
 40
17.202956
 50
-0.141104
 51
6.244033
  0
ARC
  8
1
 62
7
  6
CONTINUOUS
 10
221.132222
 20
709.991457
 40
17.837375
 50
-6.130372
 51
0.027443
  0
ARC
  8
1
 62
7
  6
CONTINUOUS
 10
227.125738
 20
709.352153
 40
11.809862
 50
-14.153164
 51
-6.151749
  0
ARC
  8
1
 62
7
  6
CONTINUOUS
 10
234.265828
 20
707.564569
 40
4.449432
 50
-29.395909
 51
-14.314580
  0
ARC
  8
1
 62
7
  6
CONTINUOUS
 10
237.456835
 20
705.768518
 40
0.787697
 50
-77.330689
 51
-29.502939
  0
LINE
  8
1
 62
7
  6
CONTINUOUS
 10
237.629596
 20
705.500000
 11
237.629596
 21
714.500000
  0
LINE
  8
1
 62
7
  6
CONTINUOUS
 10
237.629596
 20
705.500000
 11
237.967760
 21
705.161835
  0
LINE
  8
1
 62
7
  6
CONTINUOUS
 10
237.967760
 20
714.838165
 11
237.629596
 21
714.500000
  0
LINE
  8
1
 62
7
  6
CONTINUOUS
 10
238.129596
 20
705.361113
 11
238.129596
 21
714.638887
  0
LINE
  8
1
 62
7
  6
CONTINUOUS
 10
237.629596
 20
705.000000
 11
237.629596
 21
665.000000
  0
LINE
  8
1
 62
7
  6
CONTINUOUS
 10
237.629596
 20
744.000000
 11
237.629596
 21
715.000000
  0
LINE
  8
1
 62
7
  6
CONTINUOUS
 10
525.688404
 20
625.000000
 11
526.688404
 21
626.000000
  0
LINE
  8
1
 62
7
  6
CONTINUOUS
 10
506.688404
 20
626.000000
 11
507.688404
 21
625.000000
  0
LINE
  8
1
 62
7
  6
CONTINUOUS
 10
526.688404
 20
626.000000
 11
506.688404
 21
626.000000
  0
LINE
  8
1
 62
7
  6
CONTINUOUS
 10
525.688404
 20
625.000000
 11
525.688404
 21
621.000000
  0
LINE
  8
1
 62
7
  6
CONTINUOUS
 10
524.188404
 20
620.750000
 11
524.188404
 21
621.000000
  0
LINE
  8
1
 62
7
  6
CONTINUOUS
 10
509.188404
 20
620.750000
 11
509.188404
 21
621.000000
  0
LINE
  8
1
 62
7
  6
CONTINUOUS
 10
525.188404
 20
616.750000
 11
525.188404
 21
615.750000
  0
LINE
  8
1
 62
7
  6
CONTINUOUS
 10
525.188404
 20
615.750000
 11
508.188404
 21
615.750000
  0
LINE
  8
1
 62
7
  6
CONTINUOUS
 10
508.188404
 20
615.750000
 11
508.188404
 21
616.750000
  0
LINE
  8
1
 62
7
  6
CONTINUOUS
 10
525.188404
 20
615.750000
 11
525.188404
 21
613.750000
  0
LINE
  8
1
 62
7
  6
CONTINUOUS
 10
525.188404
 20
613.750000
 11
524.188404
 21
612.750000
  0
LINE
  8
1
 62
7
  6
CONTINUOUS
 10
508.188404
 20
613.750000
 11
508.188404
 21
615.750000
  0
LINE
  8
1
 62
7
  6
CONTINUOUS
 10
524.188404
 20
612.750000
 11
509.188404
 21
612.750000
  0
LINE
  8
1
 62
7
  6
CONTINUOUS
 10
508.188404
 20
613.750000
 11
509.188404
 21
612.750000
  0
LINE
  8
1
 62
7
  6
CONTINUOUS
 10
525.188404
 20
613.750000
 11
508.188404
 21
613.750000
  0
LINE
  8
1
 62
7
  6
CONTINUOUS
 10
525.688404
 20
745.000000
 11
526.688404
 21
744.000000
  0
LINE
  8
1
 62
7
  6
CONTINUOUS
 10
506.688404
 20
744.000000
 11
507.688404
 21
745.000000
  0
LINE
  8
1
 62
7
  6
CONTINUOUS
 10
526.688404
 20
744.000000
 11
506.688404
 21
744.000000
  0
LINE
  8
1
 62
7
  6
CONTINUOUS
 10
525.688404
 20
745.000000
 11
525.688404
 21
749.000000
  0
LINE
  8
1
 62
7
  6
CONTINUOUS
 10
524.188404
 20
749.250000
 11
524.188404
 21
749.000000
  0
LINE
  8
1
 62
7
  6
CONTINUOUS
 10
509.188404
 20
749.250000
 11
509.188404
 21
749.000000
  0
LINE
  8
1
 62
7
  6
CONTINUOUS
 10
525.188404
 20
753.250000
 11
525.188404
 21
754.250000
  0
LINE
  8
1
 62
7
  6
CONTINUOUS
 10
525.188404
 20
754.250000
 11
508.188404
 21
754.250000
  0
LINE
  8
1
 62
7
  6
CONTINUOUS
 10
508.188404
 20
754.250000
 11
508.188404
 21
753.250000
  0
LINE
  8
1
 62
7
  6
CONTINUOUS
 10
525.188404
 20
754.250000
 11
525.188404
 21
756.250000
  0
LINE
  8
1
 62
7
  6
CONTINUOUS
 10
525.188404
 20
756.250000
 11
524.188404
 21
757.250000
  0
LINE
  8
1
 62
7
  6
CONTINUOUS
 10
508.188404
 20
756.250000
 11
508.188404
 21
754.250000
  0
LINE
  8
1
 62
7
  6
CONTINUOUS
 10
524.188404
 20
757.250000
 11
509.188404
 21
757.250000
  0
LINE
  8
1
 62
7
  6
CONTINUOUS
 10
508.188404
 20
756.250000
 11
509.188404
 21
757.250000
  0
LINE
  8
1
 62
7
  6
CONTINUOUS
 10
525.188404
 20
756.250000
 11
508.188404
 21
756.250000
  0
LINE
  8
1
 62
7
  6
CONTINUOUS
 10
525.688404
 20
749.250000
 11
525.688404
 21
753.250000
  0
LINE
  8
1
 62
7
  6
CONTINUOUS
 10
525.688404
 20
620.750000
 11
525.688404
 21
616.750000
  0
LINE
  8
1
 62
7
  6
CONTINUOUS
 10
525.688404
 20
616.750000
 11
492.159000
 21
616.750000
  0
LINE
  8
1
 62
7
  6
CONTINUOUS
 10
525.688404
 20
621.000000
 11
492.159000
 21
621.000000
  0
LINE
  8
1
 62
7
  6
CONTINUOUS
 10
525.688404
 20
620.750000
 11
492.159000
 21
620.750000
  0
LINE
  8
1
 62
7
  6
CONTINUOUS
 10
525.688404
 20
625.000000
 11
492.159000
 21
625.000000
  0
LINE
  8
1
 62
7
  6
CONTINUOUS
 10
525.688404
 20
753.250000
 11
492.159000
 21
753.250000
  0
LINE
  8
1
 62
7
  6
CONTINUOUS
 10
525.688404
 20
749.000000
 11
492.159000
 21
749.000000
  0
LINE
  8
1
 62
7
  6
CONTINUOUS
 10
525.688404
 20
749.250000
 11
492.159000
 21
749.250000
  0
LINE
  8
1
 62
7
  6
CONTINUOUS
 10
525.688404
 20
745.000000
 11
492.159000
 21
745.000000
  0
LINE
  8
1
 62
7
  6
DASHDOT
 10
489.159000
 20
725.000000
 11
529.688404
 21
725.000000
  0
LINE
  8
1
 62
7
  6
CONTINUOUS
 10
506.688404
 20
730.000000
 11
492.159000
 21
730.000000
  0
LINE
  8
1
 62
7
  6
CONTINUOUS
 10
506.688404
 20
720.000000
 11
492.159000
 21
720.000000
  0
ARC
  8
1
 62
7
  6
CONTINUOUS
 10
506.649616
 20
729.411986
 40
0.589292
 50
20.607730
 51
86.225897
  0
ARC
  8
1
 62
7
  6
CONTINUOUS
 10
504.196422
 20
727.785096
 40
3.520420
 50
12.308026
 51
31.402463
  0
ARC
  8
1
 62
7
  6
CONTINUOUS
 10
497.483906
 20
725.880526
 40
10.493456
 50
5.648882
 51
14.656032
  0
ARC
  8
1
 62
7
  6
CONTINUOUS
 10
490.825500
 20
725.042366
 40
17.202956
 50
-0.141104
 51
6.244033
  0
ARC
  8
1
 62
7
  6
CONTINUOUS
 10
490.191031
 20
724.991457
 40
17.837375
 50
-6.130372
 51
0.027443
  0
ARC
  8
1
 62
7
  6
CONTINUOUS
 10
496.184547
 20
724.352153
 40
11.809862
 50
-14.153164
 51
-6.151749
  0
ARC
  8
1
 62
7
  6
CONTINUOUS
 10
503.324637
 20
722.564569
 40
4.449432
 50
-29.395909
 51
-14.314580
  0
ARC
  8
1
 62
7
  6
CONTINUOUS
 10
506.515644
 20
720.768518
 40
0.787697
 50
-77.330689
 51
-29.502939
  0
LINE
  8
1
 62
7
  6
CONTINUOUS
 10
506.688404
 20
730.000000
 11
506.688404
 21
744.000000
  0
ARC
  8
1
 62
7
  6
CONTINUOUS
 10
526.727193
 20
729.411986
 40
0.589292
 50
93.774103
 51
159.392270
  0
ARC
  8
1
 62
7
  6
CONTINUOUS
 10
529.180387
 20
727.785096
 40
3.520420
 50
148.597537
 51
167.691974
  0
ARC
  8
1
 62
7
  6
CONTINUOUS
 10
535.892903
 20
725.880526
 40
10.493456
 50
165.343968
 51
174.351118
  0
ARC
  8
1
 62
7
  6
CONTINUOUS
 10
542.551309
 20
725.042366
 40
17.202956
 50
173.755967
 51
-179.858896
  0
ARC
  8
1
 62
7
  6
CONTINUOUS
 10
543.185778
 20
724.991457
 40
17.837375
 50
179.972557
 51
-173.869628
  0
ARC
  8
1
 62
7
  6
CONTINUOUS
 10
537.192262
 20
724.352153
 40
11.809862
 50
-173.848251
 51
-165.846836
  0
ARC
  8
1
 62
7
  6
CONTINUOUS
 10
530.052172
 20
722.564569
 40
4.449432
 50
-165.685420
 51
-150.604091
  0
ARC
  8
1
 62
7
  6
CONTINUOUS
 10
526.861165
 20
720.768518
 40
0.787697
 50
-150.497061
 51
-102.669311
  0
LINE
  8
1
 62
7
  6
CONTINUOUS
 10
526.688404
 20
720.500000
 11
526.688404
 21
729.500000
  0
LINE
  8
1
 62
7
  6
CONTINUOUS
 10
526.688404
 20
720.500000
 11
526.350240
 21
720.161835
  0
LINE
  8
1
 62
7
  6
CONTINUOUS
 10
526.350240
 20
729.838165
 11
526.688404
 21
729.500000
  0
LINE
  8
1
 62
7
  6
CONTINUOUS
 10
526.188404
 20
720.361113
 11
526.188404
 21
729.638887
  0
LINE
  8
1
 62
7
  6
CONTINUOUS
 10
526.688404
 20
744.000000
 11
526.688404
 21
730.000000
  0
LINE
  8
1
 62
7
  6
DASHDOT
 10
489.159000
 20
645.000000
 11
529.688404
 21
645.000000
  0
LINE
  8
1
 62
7
  6
CONTINUOUS
 10
506.688404
 20
640.000000
 11
492.159000
 21
640.000000
  0
LINE
  8
1
 62
7
  6
CONTINUOUS
 10
506.688404
 20
650.000000
 11
492.159000
 21
650.000000
  0
ARC
  8
1
 62
7
  6
CONTINUOUS
 10
526.727193
 20
640.588014
 40
0.589292
 50
-159.392270
 51
-93.774103
  0
ARC
  8
1
 62
7
  6
CONTINUOUS
 10
529.180387
 20
642.214904
 40
3.520420
 50
-167.691974
 51
-148.597537
  0
ARC
  8
1
 62
7
  6
CONTINUOUS
 10
535.892903
 20
644.119474
 40
10.493456
 50
-174.351118
 51
-165.343968
  0
ARC
  8
1
 62
7
  6
CONTINUOUS
 10
542.551309
 20
644.957634
 40
17.202956
 50
179.858896
 51
-173.755967
  0
ARC
  8
1
 62
7
  6
CONTINUOUS
 10
543.185778
 20
645.008543
 40
17.837375
 50
173.869628
 51
-179.972557
  0
ARC
  8
1
 62
7
  6
CONTINUOUS
 10
537.192262
 20
645.647847
 40
11.809862
 50
165.846836
 51
173.848251
  0
ARC
  8
1
 62
7
  6
CONTINUOUS
 10
530.052172
 20
647.435431
 40
4.449432
 50
150.604091
 51
165.685420
  0
ARC
  8
1
 62
7
  6
CONTINUOUS
 10
526.861165
 20
649.231482
 40
0.787697
 50
102.669311
 51
150.497061
  0
ARC
  8
1
 62
7
  6
CONTINUOUS
 10
506.649616
 20
640.588014
 40
0.589292
 50
-86.225897
 51
-20.607730
  0
ARC
  8
1
 62
7
  6
CONTINUOUS
 10
504.196422
 20
642.214904
 40
3.520420
 50
-31.402463
 51
-12.308026
  0
ARC
  8
1
 62
7
  6
CONTINUOUS
 10
497.483906
 20
644.119474
 40
10.493456
 50
-14.656032
 51
-5.648882
  0
ARC
  8
1
 62
7
  6
CONTINUOUS
 10
490.825500
 20
644.957634
 40
17.202956
 50
-6.244033
 51
0.141104
  0
ARC
  8
1
 62
7
  6
CONTINUOUS
 10
490.191031
 20
645.008543
 40
17.837375
 50
-0.027443
 51
6.130372
  0
ARC
  8
1
 62
7
  6
CONTINUOUS
 10
496.184547
 20
645.647847
 40
11.809862
 50
6.151749
 51
14.153164
  0
ARC
  8
1
 62
7
  6
CONTINUOUS
 10
503.324637
 20
647.435431
 40
4.449432
 50
14.314580
 51
29.395909
  0
ARC
  8
1
 62
7
  6
CONTINUOUS
 10
506.515644
 20
649.231482
 40
0.787697
 50
29.502939
 51
77.330689
  0
LINE
  8
1
 62
7
  6
CONTINUOUS
 10
506.688404
 20
626.000000
 11
506.688404
 21
640.000000
  0
LINE
  8
1
 62
7
  6
CONTINUOUS
 10
526.688404
 20
640.000000
 11
526.688404
 21
626.000000
  0
LINE
  8
1
 62
7
  6
CONTINUOUS
 10
526.688404
 20
649.500000
 11
526.688404
 21
640.500000
  0
LINE
  8
1
 62
7
  6
CONTINUOUS
 10
526.688404
 20
649.500000
 11
526.350240
 21
649.838165
  0
LINE
  8
1
 62
7
  6
CONTINUOUS
 10
526.350240
 20
640.161835
 11
526.688404
 21
640.500000
  0
LINE
  8
1
 62
7
  6
CONTINUOUS
 10
526.188404
 20
649.638887
 11
526.188404
 21
640.361113
  0
LINE
  8
1
 62
7
  6
DASHDOT
 10
516.688404
 20
609.750000
 11
516.688404
 21
760.250000
  0
LINE
  8
1
 62
7
  6
CONTINUOUS
 10
534.388596
 20
691.000000
 11
534.688596
 21
690.700000
  0
LINE
  8
1
 62
7
  6
CONTINUOUS
 10
534.388596
 20
679.000000
 11
534.688596
 21
679.300000
  0
LINE
  8
1
 62
7
  6
CONTINUOUS
 10
534.388596
 20
691.000000
 11
534.388596
 21
679.000000
  0
LINE
  8
1
 62
7
  6
CONTINUOUS
 10
526.688404
 20
691.000000
 11
534.388596
 21
691.000000
  0
LINE
  8
1
 62
7
  6
CONTINUOUS
 10
492.159000
 20
691.000000
 11
506.688404
 21
691.000000
  0
LINE
  8
1
 62
7
  6
CONTINUOUS
 10
526.688404
 20
679.000000
 11
534.388596
 21
679.000000
  0
LINE
  8
1
 62
7
  6
CONTINUOUS
 10
492.159000
 20
679.000000
 11
506.688404
 21
679.000000
  0
LINE
  8
1
 62
7
  6
CONTINUOUS
 10
535.288596
 20
696.000000
 11
544.688596
 21
696.000000
  0
LINE
  8
1
 62
7
  6
CONTINUOUS
 10
534.688596
 20
695.400000
 11
535.288596
 21
696.000000
  0
LINE
  8
1
 62
7
  6
CONTINUOUS
 10
544.688596
 20
674.000000
 11
535.288596
 21
674.000000
  0
LINE
  8
1
 62
7
  6
CONTINUOUS
 10
534.688596
 20
674.600000
 11
534.688596
 21
695.400000
  0
LINE
  8
1
 62
7
  6
CONTINUOUS
 10
535.288596
 20
674.000000
 11
534.688596
 21
674.600000
  0
LINE
  8
1
 62
7
  6
CONTINUOUS
 10
535.288596
 20
674.000000
 11
535.288596
 21
696.000000
  0
LINE
  8
1
 62
7
  6
CONTINUOUS
 10
544.688596
 20
656.000000
 11
545.688596
 21
655.000000
  0
LINE
  8
1
 62
7
  6
CONTINUOUS
 10
545.688596
 20
655.000000
 11
561.688596
 21
655.000000
  0
LINE
  8
1
 62
7
  6
CONTINUOUS
 10
562.688596
 20
656.000000
 11
561.688596
 21
655.000000
  0
LINE
  8
1
 62
7
  6
CONTINUOUS
 10
544.688596
 20
714.000000
 11
544.688596
 21
656.000000
  0
LINE
  8
1
 62
7
  6
CONTINUOUS
 10
545.688596
 20
715.000000
 11
544.688596
 21
714.000000
  0
LINE
  8
1
 62
7
  6
CONTINUOUS
 10
562.688596
 20
656.000000
 11
562.688596
 21
714.000000
  0
LINE
  8
1
 62
7
  6
CONTINUOUS
 10
561.688596
 20
715.000000
 11
545.688596
 21
715.000000
  0
LINE
  8
1
 62
7
  6
CONTINUOUS
 10
562.688596
 20
714.000000
 11
561.688596
 21
715.000000
  0
LINE
  8
1
 62
7
  6
CONTINUOUS
 10
561.688596
 20
655.000000
 11
561.688596
 21
715.000000
  0
LINE
  8
1
 62
7
  6
CONTINUOUS
 10
545.688596
 20
715.000000
 11
545.688596
 21
655.000000
  0
LINE
  8
1
 62
7
  6
CONTINUOUS
 10
560.688596
 20
655.000000
 11
560.688596
 21
715.000000
  0
LINE
  8
1
 62
7
  6
CONTINUOUS
 10
546.688596
 20
715.000000
 11
546.688596
 21
655.000000
  0
LINE
  8
1
 62
7
  6
CONTINUOUS
 10
549.955837
 20
704.134868
 11
546.688596
 21
704.134868
  0
LINE
  8
1
 62
7
  6
CONTINUOUS
 10
546.688596
 20
706.134868
 11
555.197216
 21
706.134868
  0
LINE
  8
1
 62
7
  6
CONTINUOUS
 10
560.438596
 20
708.134868
 11
546.688596
 21
708.134868
  0
LINE
  8
1
 62
7
  6
CONTINUOUS
 10
546.688596
 20
710.134868
 11
560.688596
 21
710.134868
  0
LINE
  8
1
 62
7
  6
CONTINUOUS
 10
560.688596
 20
712.134868
 11
546.688596
 21
712.134868
  0
LINE
  8
1
 62
7
  6
CONTINUOUS
 10
546.688596
 20
714.134868
 11
560.688596
 21
714.134868
  0
LINE
  8
1
 62
7
  6
CONTINUOUS
 10
558.688596
 20
715.000000
 11
558.688596
 21
707.467105
  0
LINE
  8
1
 62
7
  6
CONTINUOUS
 10
556.688596
 20
706.703947
 11
556.688596
 21
715.000000
  0
LINE
  8
1
 62
7
  6
CONTINUOUS
 10
554.688596
 20
715.000000
 11
554.688596
 21
705.940789
  0
LINE
  8
1
 62
7
  6
CONTINUOUS
 10
552.688596
 20
705.177632
 11
552.688596
 21
715.000000
  0
LINE
  8
1
 62
7
  6
CONTINUOUS
 10
550.688596
 20
715.000000
 11
550.688596
 21
704.414474
  0
LINE
  8
1
 62
7
  6
CONTINUOUS
 10
548.688596
 20
703.651316
 11
548.688596
 21
715.000000
  0
LINE
  8
1
 62
7
  6
CONTINUOUS
 10
557.421354
 20
665.865132
 11
560.688596
 21
665.865132
  0
LINE
  8
1
 62
7
  6
CONTINUOUS
 10
560.688596
 20
663.865132
 11
552.179975
 21
663.865132
  0
LINE
  8
1
 62
7
  6
CONTINUOUS
 10
546.938596
 20
661.865132
 11
560.688596
 21
661.865132
  0
LINE
  8
1
 62
7
  6
CONTINUOUS
 10
560.688596
 20
659.865132
 11
546.688596
 21
659.865132
  0
LINE
  8
1
 62
7
  6
CONTINUOUS
 10
546.688596
 20
657.865132
 11
560.688596
 21
657.865132
  0
LINE
  8
1
 62
7
  6
CONTINUOUS
 10
560.688596
 20
655.865132
 11
546.688596
 21
655.865132
  0
LINE
  8
1
 62
7
  6
CONTINUOUS
 10
548.688596
 20
655.000000
 11
548.688596
 21
662.532895
  0
LINE
  8
1
 62
7
  6
CONTINUOUS
 10
550.688596
 20
663.296053
 11
550.688596
 21
655.000000
  0
LINE
  8
1
 62
7
  6
CONTINUOUS
 10
552.688596
 20
655.000000
 11
552.688596
 21
664.059211
  0
LINE
  8
1
 62
7
  6
CONTINUOUS
 10
554.688596
 20
664.822368
 11
554.688596
 21
655.000000
  0
LINE
  8
1
 62
7
  6
CONTINUOUS
 10
556.688596
 20
655.000000
 11
556.688596
 21
665.585526
  0
LINE
  8
1
 62
7
  6
CONTINUOUS
 10
558.688596
 20
666.348684
 11
558.688596
 21
655.000000
  0
ARC
  8
1
 62
7
  6
CONTINUOUS
 10
526.722312
 20
690.073524
 40
0.927097
 50
92.096007
 51
149.556184
  0
ARC
  8
1
 62
7
  6
CONTINUOUS
 10
528.984938
 20
688.203628
 40
3.853465
 50
142.615956
 51
164.357708
  0
ARC
  8
1
 62
7
  6
CONTINUOUS
 10
535.190521
 20
686.012463
 40
10.429173
 50
161.957329
 51
172.930026
  0
ARC
  8
1
 62
7
  6
CONTINUOUS
 10
541.344783
 20
685.048711
 40
16.656450
 50
172.245654
 51
-179.832442
  0
ARC
  8
1
 62
7
  6
CONTINUOUS
 10
541.931246
 20
684.990174
 40
17.242844
 50
179.967350
 51
-172.380562
  0
ARC
  8
1
 62
7
  6
CONTINUOUS
 10
536.391895
 20
684.255114
 40
11.654940
 50
-172.351519
 51
-162.535836
  0
ARC
  8
1
 62
7
  6
CONTINUOUS
 10
529.791901
 20
682.198940
 40
4.742137
 50
-162.302352
 51
-144.671313
  0
ARC
  8
1
 62
7
  6
CONTINUOUS
 10
526.844891
 20
680.131892
 40
1.142658
 50
-143.780804
 51
-97.871386
  0
ARC
  8
1
 62
7
  6
CONTINUOUS
 10
506.654497
 20
690.073524
 40
0.927097
 50
30.443816
 51
87.903993
  0
ARC
  8
1
 62
7
  6
CONTINUOUS
 10
504.391871
 20
688.203628
 40
3.853465
 50
15.642292
 51
37.384044
  0
ARC
  8
1
 62
7
  6
CONTINUOUS
 10
498.186288
 20
686.012463
 40
10.429173
 50
7.069974
 51
18.042671
  0
ARC
  8
1
 62
7
  6
CONTINUOUS
 10
492.032026
 20
685.048711
 40
16.656450
 50
-0.167558
 51
7.754346
  0
ARC
  8
1
 62
7
  6
CONTINUOUS
 10
491.445563
 20
684.990174
 40
17.242844
 50
-7.619438
 51
0.032650
  0
ARC
  8
1
 62
7
  6
CONTINUOUS
 10
496.984914
 20
684.255114
 40
11.654940
 50
-17.464164
 51
-7.648481
  0
ARC
  8
1
 62
7
  6
CONTINUOUS
 10
503.584908
 20
682.198940
 40
4.742137
 50
-35.328687
 51
-17.697648
  0
ARC
  8
1
 62
7
  6
CONTINUOUS
 10
506.531918
 20
680.131892
 40
1.142658
 50
-82.128614
 51
-36.219196
  0
LINE
  8
1
 62
7
  6
CONTINUOUS
 10
526.688404
 20
679.000000
 11
526.688404
 21
650.000000
  0
LINE
  8
1
 62
7
  6
CONTINUOUS
 10
506.688404
 20
691.000000
 11
506.688404
 21
720.000000
  0
LINE
  8
1
 62
7
  6
CONTINUOUS
 10
506.688404
 20
650.000000
 11
506.688404
 21
679.000000
  0
CIRCLE
  8
1
 62
7
  6
CONTINUOUS
 10
516.688404
 20
694.500000
 40
8.000000
  0
ARC
  8
1
 62
7
  6
CONTINUOUS
 10
536.467773
 20
716.144018
 40
0.181841
 50
138.540678
 51
-156.726380
  0
ARC
  8
1
 62
7
  6
CONTINUOUS
 10
537.317164
 20
716.305847
 40
1.042950
 50
-167.052728
 51
-147.646250
  0
ARC
  8
1
 62
7
  6
CONTINUOUS
 10
539.103407
 20
717.287131
 40
3.079644
 50
-150.008769
 51
-140.793892
  0
ARC
  8
1
 62
7
  6
CONTINUOUS
 10
540.653092
 20
718.482592
 40
5.036407
 50
-141.399562
 51
-134.855970
  0
ARC
  8
1
 62
7
  6
CONTINUOUS
 10
540.794641
 20
718.602626
 40
5.221358
 50
-135.028017
 51
-128.716451
  0
ARC
  8
1
 62
7
  6
CONTINUOUS
 10
539.694227
 20
717.232031
 40
3.463678
 50
-128.694333
 51
-120.503005
  0
ARC
  8
1
 62
7
  6
CONTINUOUS
 10
538.600093
 20
715.382398
 40
1.314671
 50
-120.334521
 51
-104.966501
  0
ARC
  8
1
 62
7
  6
CONTINUOUS
 10
538.321909
 20
714.345061
 40
0.240683
 50
-104.764100
 51
-57.050198
  0
ARC
  8
1
 62
7
  6
CONTINUOUS
 10
538.316541
 20
714.263487
 40
0.181841
 50
-41.459322
 51
23.273620
  0
ARC
  8
1
 62
7
  6
CONTINUOUS
 10
537.467150
 20
714.101659
 40
1.042950
 50
12.947272
 51
32.353750
  0
ARC
  8
1
 62
7
  6
CONTINUOUS
 10
535.680907
 20
713.120375
 40
3.079644
 50
29.991231
 51
39.206108
  0
ARC
  8
1
 62
7
  6
CONTINUOUS
 10
534.131222
 20
711.924913
 40
5.036407
 50
38.600438
 51
45.144030
  0
ARC
  8
1
 62
7
  6
CONTINUOUS
 10
533.989673
 20
711.804880
 40
5.221358
 50
44.971983
 51
51.283549
  0
ARC
  8
1
 62
7
  6
CONTINUOUS
 10
535.090087
 20
713.175475
 40
3.463678
 50
51.305667
 51
59.496995
  0
ARC
  8
1
 62
7
  6
CONTINUOUS
 10
536.184221
 20
715.025107
 40
1.314671
 50
59.665479
 51
75.033499
  0
ARC
  8
1
 62
7
  6
CONTINUOUS
 10
536.462405
 20
716.062445
 40
0.240683
 50
75.235900
 51
122.949802
  0
LINE
  8
1
 62
7
  6
CONTINUOUS
 10
538.547553
 20
712.952990
 11
538.490984
 21
714.268209
  0
LINE
  8
1
 62
7
  6
CONTINUOUS
 10
535.141395
 20
716.359148
 11
536.456613
 21
716.302580
  0
ARC
  8
1
 62
7
  6
CONTINUOUS
 10
535.119754
 20
716.113850
 40
0.244338
 50
84.498193
 51
156.755350
  0
ARC
  8
1
 62
7
  6
CONTINUOUS
 10
535.461445
 20
716.064749
 40
0.584600
 50
165.585125
 51
-151.253626
  0
ARC
  8
1
 62
7
  6
CONTINUOUS
 10
537.685622
 20
716.862138
 40
2.941589
 50
-158.490641
 51
-144.353401
  0
ARC
  8
1
 62
7
  6
CONTINUOUS
 10
540.927374
 20
718.979352
 40
6.811892
 50
-145.772810
 51
-137.854843
  0
ARC
  8
1
 62
7
  6
CONTINUOUS
 10
542.599182
 20
720.410778
 40
9.012156
 50
-138.239325
 51
-131.760675
  0
ARC
  8
1
 62
7
  6
CONTINUOUS
 10
541.526047
 20
719.194502
 40
7.390171
 50
-131.834930
 51
-124.537417
  0
ARC
  8
1
 62
7
  6
CONTINUOUS
 10
539.342116
 20
716.032491
 40
3.547284
 50
-124.434976
 51
-112.720982
  0
ARC
  8
1
 62
7
  6
CONTINUOUS
 10
538.282267
 20
713.504609
 40
0.806214
 50
-112.634066
 51
-81.697433
  0
ARC
  8
1
 62
7
  6
CONTINUOUS
 10
538.335153
 20
712.911872
 40
0.214645
 50
-72.783574
 51
11.530031
  0
LINE
  8
1
 62
7
  6
CONTINUOUS
 10
534.944490
 20
716.291619
 11
521.354520
 21
702.701650
  0
LINE
  8
1
 62
7
  6
CONTINUOUS
 10
524.890054
 20
699.166116
 11
538.480024
 21
712.756086
  0
ARC
  8
1
 62
7
  6
CONTINUOUS
 10
521.581647
 20
702.500992
 40
0.303068
 50
138.540678
 51
-156.726380
  0
ARC
  8
1
 62
7
  6
CONTINUOUS
 10
522.997299
 20
702.770706
 40
1.738251
 50
-167.052728
 51
-147.646250
  0
ARC
  8
1
 62
7
  6
CONTINUOUS
 10
525.974370
 20
704.406179
 40
5.132740
 50
-150.008769
 51
-140.793892
  0
ARC
  8
1
 62
7
  6
CONTINUOUS
 10
528.557179
 20
706.398616
 40
8.394012
 50
-141.399562
 51
-134.855970
  0
ARC
  8
1
 62
7
  6
CONTINUOUS
 10
528.793094
 20
706.598671
 40
8.702263
 50
-135.028017
 51
-128.716451
  0
ARC
  8
1
 62
7
  6
CONTINUOUS
 10
526.959071
 20
704.314346
 40
5.772797
 50
-128.694333
 51
-120.503005
  0
ARC
  8
1
 62
7
  6
CONTINUOUS
 10
525.135514
 20
701.231626
 40
2.191119
 50
-120.334521
 51
-104.966501
  0
ARC
  8
1
 62
7
  6
CONTINUOUS
 10
524.671874
 20
699.502730
 40
0.401138
 50
-104.764100
 51
-57.050198
  0
ARC
  8
1
 62
7
  6
CONTINUOUS
 10
516.688404
 20
694.500000
 40
10.000000
 50
59.477512
 51
30.522488
  0
LINE
  8
1
 62
7
  6
DASHDOT
 10
521.222443
 20
699.034038
 11
539.097749
 21
716.909345
  0
LINE
  8
1
 62
7
  6
DASHDOT
 10
504.688404
 20
694.500000
 11
528.688404
 21
694.500000
  0
LINE
  8
1
 62
7
  6
CONTINUOUS
 10
526.688404
 20
700.964466
 11
526.688404
 21
691.000000
  0
LINE
  8
1
 62
7
  6
CONTINUOUS
 10
526.688404
 20
720.000000
 11
526.688404
 21
708.035534
  0
LINE
  8
1
 62
7
  6
CONTINUOUS
 10
491.159000
 20
765.000000
 11
492.159000
 21
764.000000
  0
LINE
  8
1
 62
7
  6
CONTINUOUS
 10
492.159000
 20
764.000000
 11
492.159000
 21
606.000000
  0
LINE
  8
1
 62
7
  6
CONTINUOUS
 10
491.159000
 20
605.000000
 11
492.159000
 21
606.000000
  0
LINE
  8
1
 62
7
  6
CONTINUOUS
 10
273.159000
 20
605.000000
 11
491.159000
 21
605.000000
  0
LINE
  8
1
 62
7
  6
CONTINUOUS
 10
272.159000
 20
606.000000
 11
273.159000
 21
605.000000
  0
LINE
  8
1
 62
7
  6
CONTINUOUS
 10
491.159000
 20
765.000000
 11
273.159000
 21
765.000000
  0
LINE
  8
1
 62
7
  6
CONTINUOUS
 10
272.159000
 20
764.000000
 11
272.159000
 21
606.000000
  0
LINE
  8
1
 62
7
  6
CONTINUOUS
 10
273.159000
 20
765.000000
 11
272.159000
 21
764.000000
  0
CIRCLE
  8
1
 62
7
  6
CONTINUOUS
 10
307.159000
 20
725.000000
 40
5.000000
  0
LINE
  8
1
 62
7
  6
DASHDOT
 10
313.159000
 20
725.000000
 11
301.159000
 21
725.000000
  0
LINE
  8
1
 62
7
  6
DASHDOT
 10
307.159000
 20
719.000000
 11
307.159000
 21
731.000000
  0
CIRCLE
  8
1
 62
7
  6
CONTINUOUS
 10
307.159000
 20
725.000000
 40
4.150000
  0
LINE
  8
1
 62
7
  6
CONTINUOUS
 10
305.159000
 20
725.000000
 11
306.159000
 21
726.732051
  0
LINE
  8
1
 62
7
  6
CONTINUOUS
 10
306.159000
 20
726.732051
 11
308.159000
 21
726.732051
  0
LINE
  8
1
 62
7
  6
CONTINUOUS
 10
308.159000
 20
726.732051
 11
309.159000
 21
725.000000
  0
LINE
  8
1
 62
7
  6
CONTINUOUS
 10
309.159000
 20
725.000000
 11
308.159000
 21
723.267949
  0
LINE
  8
1
 62
7
  6
CONTINUOUS
 10
308.159000
 20
723.267949
 11
306.159000
 21
723.267949
  0
LINE
  8
1
 62
7
  6
CONTINUOUS
 10
306.159000
 20
723.267949
 11
305.159000
 21
725.000000
  0
CIRCLE
  8
1
 62
7
  6
CONTINUOUS
 10
307.159000
 20
725.000000
 40
3.350000
  0
CIRCLE
  8
1
 62
7
  6
CONTINUOUS
 10
357.159000
 20
710.000000
 40
1.650000
  0
CIRCLE
  8
1
 62
7
  6
CONTINUOUS
 10
357.159000
 20
710.000000
 40
2.000000
  0
LINE
  8
1
 62
7
  6
DASHDOT
 10
352.159000
 20
710.000000
 11
362.159000
 21
710.000000
  0
LINE
  8
1
 62
7
  6
DASHDOT
 10
357.159000
 20
705.000000
 11
357.159000
 21
715.000000
  0
CIRCLE
  8
1
 62
7
  6
CONTINUOUS
 10
357.159000
 20
735.000000
 40
1.650000
  0
CIRCLE
  8
1
 62
7
  6
CONTINUOUS
 10
357.159000
 20
735.000000
 40
2.000000
  0
LINE
  8
1
 62
7
  6
DASHDOT
 10
352.159000
 20
735.000000
 11
362.159000
 21
735.000000
  0
LINE
  8
1
 62
7
  6
DASHDOT
 10
357.159000
 20
730.000000
 11
357.159000
 21
740.000000
  0
CIRCLE
  8
1
 62
7
  6
CONTINUOUS
 10
332.159000
 20
735.000000
 40
1.650000
  0
CIRCLE
  8
1
 62
7
  6
CONTINUOUS
 10
332.159000
 20
735.000000
 40
2.000000
  0
LINE
  8
1
 62
7
  6
DASHDOT
 10
327.159000
 20
735.000000
 11
337.159000
 21
735.000000
  0
LINE
  8
1
 62
7
  6
DASHDOT
 10
332.159000
 20
730.000000
 11
332.159000
 21
740.000000
  0
CIRCLE
  8
1
 62
7
  6
CONTINUOUS
 10
332.159000
 20
710.000000
 40
1.650000
  0
CIRCLE
  8
1
 62
7
  6
CONTINUOUS
 10
332.159000
 20
710.000000
 40
2.000000
  0
LINE
  8
1
 62
7
  6
DASHDOT
 10
327.159000
 20
710.000000
 11
337.159000
 21
710.000000
  0
LINE
  8
1
 62
7
  6
DASHDOT
 10
332.159000
 20
705.000000
 11
332.159000
 21
715.000000
  0
CIRCLE
  8
1
 62
7
  6
CONTINUOUS
 10
307.159000
 20
710.000000
 40
1.650000
  0
CIRCLE
  8
1
 62
7
  6
CONTINUOUS
 10
307.159000
 20
710.000000
 40
2.000000
  0
LINE
  8
1
 62
7
  6
DASHDOT
 10
302.159000
 20
710.000000
 11
312.159000
 21
710.000000
  0
LINE
  8
1
 62
7
  6
DASHDOT
 10
307.159000
 20
705.000000
 11
307.159000
 21
715.000000
  0
CIRCLE
  8
1
 62
7
  6
CONTINUOUS
 10
307.159000
 20
735.000000
 40
1.650000
  0
CIRCLE
  8
1
 62
7
  6
CONTINUOUS
 10
307.159000
 20
735.000000
 40
2.000000
  0
LINE
  8
1
 62
7
  6
DASHDOT
 10
302.159000
 20
735.000000
 11
312.159000
 21
735.000000
  0
LINE
  8
1
 62
7
  6
DASHDOT
 10
307.159000
 20
730.000000
 11
307.159000
 21
740.000000
  0
CIRCLE
  8
1
 62
7
  6
CONTINUOUS
 10
307.159000
 20
685.000000
 40
1.650000
  0
CIRCLE
  8
1
 62
7
  6
CONTINUOUS
 10
307.159000
 20
685.000000
 40
2.000000
  0
LINE
  8
1
 62
7
  6
DASHDOT
 10
307.159000
 20
680.000000
 11
307.159000
 21
690.000000
  0
CIRCLE
  8
1
 62
7
  6
CONTINUOUS
 10
332.159000
 20
685.000000
 40
1.650000
  0
CIRCLE
  8
1
 62
7
  6
CONTINUOUS
 10
332.159000
 20
685.000000
 40
2.000000
  0
LINE
  8
1
 62
7
  6
DASHDOT
 10
332.159000
 20
680.000000
 11
332.159000
 21
690.000000
  0
CIRCLE
  8
1
 62
7
  6
CONTINUOUS
 10
357.159000
 20
685.000000
 40
1.650000
  0
CIRCLE
  8
1
 62
7
  6
CONTINUOUS
 10
357.159000
 20
685.000000
 40
2.000000
  0
LINE
  8
1
 62
7
  6
DASHDOT
 10
357.159000
 20
680.000000
 11
357.159000
 21
690.000000
  0
CIRCLE
  8
1
 62
7
  6
CONTINUOUS
 10
457.159000
 20
685.000000
 40
1.650000
  0
CIRCLE
  8
1
 62
7
  6
CONTINUOUS
 10
457.159000
 20
685.000000
 40
2.000000
  0
LINE
  8
1
 62
7
  6
DASHDOT
 10
457.159000
 20
680.000000
 11
457.159000
 21
690.000000
  0
CIRCLE
  8
1
 62
7
  6
CONTINUOUS
 10
432.159000
 20
685.000000
 40
1.650000
  0
CIRCLE
  8
1
 62
7
  6
CONTINUOUS
 10
432.159000
 20
685.000000
 40
2.000000
  0
LINE
  8
1
 62
7
  6
DASHDOT
 10
432.159000
 20
680.000000
 11
432.159000
 21
690.000000
  0
CIRCLE
  8
1
 62
7
  6
CONTINUOUS
 10
407.159000
 20
685.000000
 40
1.650000
  0
CIRCLE
  8
1
 62
7
  6
CONTINUOUS
 10
407.159000
 20
685.000000
 40
2.000000
  0
LINE
  8
1
 62
7
  6
DASHDOT
 10
407.159000
 20
680.000000
 11
407.159000
 21
690.000000
  0
CIRCLE
  8
1
 62
7
  6
CONTINUOUS
 10
382.159000
 20
635.000000
 40
1.650000
  0
CIRCLE
  8
1
 62
7
  6
CONTINUOUS
 10
382.159000
 20
635.000000
 40
2.000000
  0
LINE
  8
1
 62
7
  6
DASHDOT
 10
387.159000
 20
635.000000
 11
377.159000
 21
635.000000
  0
CIRCLE
  8
1
 62
7
  6
CONTINUOUS
 10
382.159000
 20
660.000000
 40
1.650000
  0
CIRCLE
  8
1
 62
7
  6
CONTINUOUS
 10
382.159000
 20
660.000000
 40
2.000000
  0
LINE
  8
1
 62
7
  6
DASHDOT
 10
387.159000
 20
660.000000
 11
377.159000
 21
660.000000
  0
CIRCLE
  8
1
 62
7
  6
CONTINUOUS
 10
382.159000
 20
735.000000
 40
1.650000
  0
CIRCLE
  8
1
 62
7
  6
CONTINUOUS
 10
382.159000
 20
735.000000
 40
2.000000
  0
LINE
  8
1
 62
7
  6
DASHDOT
 10
387.159000
 20
735.000000
 11
377.159000
 21
735.000000
  0
CIRCLE
  8
1
 62
7
  6
CONTINUOUS
 10
382.159000
 20
710.000000
 40
1.650000
  0
CIRCLE
  8
1
 62
7
  6
CONTINUOUS
 10
382.159000
 20
710.000000
 40
2.000000
  0
LINE
  8
1
 62
7
  6
DASHDOT
 10
387.159000
 20
710.000000
 11
377.159000
 21
710.000000
  0
CIRCLE
  8
1
 62
7
  6
CONTINUOUS
 10
307.159000
 20
645.000000
 40
5.000000
  0
LINE
  8
1
 62
7
  6
DASHDOT
 10
313.159000
 20
645.000000
 11
301.159000
 21
645.000000
  0
LINE
  8
1
 62
7
  6
DASHDOT
 10
307.159000
 20
651.000000
 11
307.159000
 21
639.000000
  0
CIRCLE
  8
1
 62
7
  6
CONTINUOUS
 10
307.159000
 20
645.000000
 40
4.150000
  0
LINE
  8
1
 62
7
  6
CONTINUOUS
 10
305.159000
 20
645.000000
 11
306.159000
 21
643.267949
  0
LINE
  8
1
 62
7
  6
CONTINUOUS
 10
306.159000
 20
643.267949
 11
308.159000
 21
643.267949
  0
LINE
  8
1
 62
7
  6
CONTINUOUS
 10
308.159000
 20
643.267949
 11
309.159000
 21
645.000000
  0
LINE
  8
1
 62
7
  6
CONTINUOUS
 10
309.159000
 20
645.000000
 11
308.159000
 21
646.732051
  0
LINE
  8
1
 62
7
  6
CONTINUOUS
 10
308.159000
 20
646.732051
 11
306.159000
 21
646.732051
  0
LINE
  8
1
 62
7
  6
CONTINUOUS
 10
306.159000
 20
646.732051
 11
305.159000
 21
645.000000
  0
CIRCLE
  8
1
 62
7
  6
CONTINUOUS
 10
307.159000
 20
645.000000
 40
3.350000
  0
CIRCLE
  8
1
 62
7
  6
CONTINUOUS
 10
357.159000
 20
660.000000
 40
1.650000
  0
CIRCLE
  8
1
 62
7
  6
CONTINUOUS
 10
357.159000
 20
660.000000
 40
2.000000
  0
LINE
  8
1
 62
7
  6
DASHDOT
 10
352.159000
 20
660.000000
 11
362.159000
 21
660.000000
  0
LINE
  8
1
 62
7
  6
DASHDOT
 10
357.159000
 20
665.000000
 11
357.159000
 21
655.000000
  0
CIRCLE
  8
1
 62
7
  6
CONTINUOUS
 10
357.159000
 20
635.000000
 40
1.650000
  0
CIRCLE
  8
1
 62
7
  6
CONTINUOUS
 10
357.159000
 20
635.000000
 40
2.000000
  0
LINE
  8
1
 62
7
  6
DASHDOT
 10
352.159000
 20
635.000000
 11
362.159000
 21
635.000000
  0
LINE
  8
1
 62
7
  6
DASHDOT
 10
357.159000
 20
640.000000
 11
357.159000
 21
630.000000
  0
CIRCLE
  8
1
 62
7
  6
CONTINUOUS
 10
332.159000
 20
635.000000
 40
1.650000
  0
CIRCLE
  8
1
 62
7
  6
CONTINUOUS
 10
332.159000
 20
635.000000
 40
2.000000
  0
LINE
  8
1
 62
7
  6
DASHDOT
 10
327.159000
 20
635.000000
 11
337.159000
 21
635.000000
  0
LINE
  8
1
 62
7
  6
DASHDOT
 10
332.159000
 20
640.000000
 11
332.159000
 21
630.000000
  0
CIRCLE
  8
1
 62
7
  6
CONTINUOUS
 10
332.159000
 20
660.000000
 40
1.650000
  0
CIRCLE
  8
1
 62
7
  6
CONTINUOUS
 10
332.159000
 20
660.000000
 40
2.000000
  0
LINE
  8
1
 62
7
  6
DASHDOT
 10
327.159000
 20
660.000000
 11
337.159000
 21
660.000000
  0
LINE
  8
1
 62
7
  6
DASHDOT
 10
332.159000
 20
665.000000
 11
332.159000
 21
655.000000
  0
CIRCLE
  8
1
 62
7
  6
CONTINUOUS
 10
307.159000
 20
660.000000
 40
1.650000
  0
CIRCLE
  8
1
 62
7
  6
CONTINUOUS
 10
307.159000
 20
660.000000
 40
2.000000
  0
LINE
  8
1
 62
7
  6
DASHDOT
 10
302.159000
 20
660.000000
 11
312.159000
 21
660.000000
  0
LINE
  8
1
 62
7
  6
DASHDOT
 10
307.159000
 20
665.000000
 11
307.159000
 21
655.000000
  0
CIRCLE
  8
1
 62
7
  6
CONTINUOUS
 10
307.159000
 20
635.000000
 40
1.650000
  0
CIRCLE
  8
1
 62
7
  6
CONTINUOUS
 10
307.159000
 20
635.000000
 40
2.000000
  0
LINE
  8
1
 62
7
  6
DASHDOT
 10
302.159000
 20
635.000000
 11
312.159000
 21
635.000000
  0
LINE
  8
1
 62
7
  6
DASHDOT
 10
307.159000
 20
640.000000
 11
307.159000
 21
630.000000
  0
CIRCLE
  8
1
 62
7
  6
CONTINUOUS
 10
457.159000
 20
725.000000
 40
5.000000
  0
LINE
  8
1
 62
7
  6
DASHDOT
 10
451.159000
 20
725.000000
 11
463.159000
 21
725.000000
  0
LINE
  8
1
 62
7
  6
DASHDOT
 10
457.159000
 20
719.000000
 11
457.159000
 21
731.000000
  0
CIRCLE
  8
1
 62
7
  6
CONTINUOUS
 10
457.159000
 20
725.000000
 40
4.150000
  0
LINE
  8
1
 62
7
  6
CONTINUOUS
 10
459.159000
 20
725.000000
 11
458.159000
 21
726.732051
  0
LINE
  8
1
 62
7
  6
CONTINUOUS
 10
458.159000
 20
726.732051
 11
456.159000
 21
726.732051
  0
LINE
  8
1
 62
7
  6
CONTINUOUS
 10
456.159000
 20
726.732051
 11
455.159000
 21
725.000000
  0
LINE
  8
1
 62
7
  6
CONTINUOUS
 10
455.159000
 20
725.000000
 11
456.159000
 21
723.267949
  0
LINE
  8
1
 62
7
  6
CONTINUOUS
 10
456.159000
 20
723.267949
 11
458.159000
 21
723.267949
  0
LINE
  8
1
 62
7
  6
CONTINUOUS
 10
458.159000
 20
723.267949
 11
459.159000
 21
725.000000
  0
CIRCLE
  8
1
 62
7
  6
CONTINUOUS
 10
457.159000
 20
725.000000
 40
3.350000
  0
CIRCLE
  8
1
 62
7
  6
CONTINUOUS
 10
407.159000
 20
710.000000
 40
1.650000
  0
CIRCLE
  8
1
 62
7
  6
CONTINUOUS
 10
407.159000
 20
710.000000
 40
2.000000
  0
LINE
  8
1
 62
7
  6
DASHDOT
 10
412.159000
 20
710.000000
 11
402.159000
 21
710.000000
  0
LINE
  8
1
 62
7
  6
DASHDOT
 10
407.159000
 20
705.000000
 11
407.159000
 21
715.000000
  0
CIRCLE
  8
1
 62
7
  6
CONTINUOUS
 10
407.159000
 20
735.000000
 40
1.650000
  0
CIRCLE
  8
1
 62
7
  6
CONTINUOUS
 10
407.159000
 20
735.000000
 40
2.000000
  0
LINE
  8
1
 62
7
  6
DASHDOT
 10
412.159000
 20
735.000000
 11
402.159000
 21
735.000000
  0
LINE
  8
1
 62
7
  6
DASHDOT
 10
407.159000
 20
730.000000
 11
407.159000
 21
740.000000
  0
CIRCLE
  8
1
 62
7
  6
CONTINUOUS
 10
432.159000
 20
735.000000
 40
1.650000
  0
CIRCLE
  8
1
 62
7
  6
CONTINUOUS
 10
432.159000
 20
735.000000
 40
2.000000
  0
LINE
  8
1
 62
7
  6
DASHDOT
 10
437.159000
 20
735.000000
 11
427.159000
 21
735.000000
  0
LINE
  8
1
 62
7
  6
DASHDOT
 10
432.159000
 20
730.000000
 11
432.159000
 21
740.000000
  0
CIRCLE
  8
1
 62
7
  6
CONTINUOUS
 10
432.159000
 20
710.000000
 40
1.650000
  0
CIRCLE
  8
1
 62
7
  6
CONTINUOUS
 10
432.159000
 20
710.000000
 40
2.000000
  0
LINE
  8
1
 62
7
  6
DASHDOT
 10
437.159000
 20
710.000000
 11
427.159000
 21
710.000000
  0
LINE
  8
1
 62
7
  6
DASHDOT
 10
432.159000
 20
705.000000
 11
432.159000
 21
715.000000
  0
CIRCLE
  8
1
 62
7
  6
CONTINUOUS
 10
457.159000
 20
710.000000
 40
1.650000
  0
CIRCLE
  8
1
 62
7
  6
CONTINUOUS
 10
457.159000
 20
710.000000
 40
2.000000
  0
LINE
  8
1
 62
7
  6
DASHDOT
 10
462.159000
 20
710.000000
 11
452.159000
 21
710.000000
  0
LINE
  8
1
 62
7
  6
DASHDOT
 10
457.159000
 20
705.000000
 11
457.159000
 21
715.000000
  0
CIRCLE
  8
1
 62
7
  6
CONTINUOUS
 10
457.159000
 20
735.000000
 40
1.650000
  0
CIRCLE
  8
1
 62
7
  6
CONTINUOUS
 10
457.159000
 20
735.000000
 40
2.000000
  0
LINE
  8
1
 62
7
  6
DASHDOT
 10
462.159000
 20
735.000000
 11
452.159000
 21
735.000000
  0
LINE
  8
1
 62
7
  6
DASHDOT
 10
457.159000
 20
730.000000
 11
457.159000
 21
740.000000
  0
CIRCLE
  8
1
 62
7
  6
CONTINUOUS
 10
457.159000
 20
645.000000
 40
5.000000
  0
LINE
  8
1
 62
7
  6
DASHDOT
 10
451.159000
 20
645.000000
 11
463.159000
 21
645.000000
  0
LINE
  8
1
 62
7
  6
DASHDOT
 10
457.159000
 20
651.000000
 11
457.159000
 21
639.000000
  0
CIRCLE
  8
1
 62
7
  6
CONTINUOUS
 10
457.159000
 20
645.000000
 40
4.150000
  0
LINE
  8
1
 62
7
  6
CONTINUOUS
 10
459.159000
 20
645.000000
 11
458.159000
 21
643.267949
  0
LINE
  8
1
 62
7
  6
CONTINUOUS
 10
458.159000
 20
643.267949
 11
456.159000
 21
643.267949
  0
LINE
  8
1
 62
7
  6
CONTINUOUS
 10
456.159000
 20
643.267949
 11
455.159000
 21
645.000000
  0
LINE
  8
1
 62
7
  6
CONTINUOUS
 10
455.159000
 20
645.000000
 11
456.159000
 21
646.732051
  0
LINE
  8
1
 62
7
  6
CONTINUOUS
 10
456.159000
 20
646.732051
 11
458.159000
 21
646.732051
  0
LINE
  8
1
 62
7
  6
CONTINUOUS
 10
458.159000
 20
646.732051
 11
459.159000
 21
645.000000
  0
CIRCLE
  8
1
 62
7
  6
CONTINUOUS
 10
457.159000
 20
645.000000
 40
3.350000
  0
CIRCLE
  8
1
 62
7
  6
CONTINUOUS
 10
407.159000
 20
660.000000
 40
1.650000
  0
CIRCLE
  8
1
 62
7
  6
CONTINUOUS
 10
407.159000
 20
660.000000
 40
2.000000
  0
LINE
  8
1
 62
7
  6
DASHDOT
 10
412.159000
 20
660.000000
 11
402.159000
 21
660.000000
  0
LINE
  8
1
 62
7
  6
DASHDOT
 10
407.159000
 20
665.000000
 11
407.159000
 21
655.000000
  0
CIRCLE
  8
1
 62
7
  6
CONTINUOUS
 10
407.159000
 20
635.000000
 40
1.650000
  0
CIRCLE
  8
1
 62
7
  6
CONTINUOUS
 10
407.159000
 20
635.000000
 40
2.000000
  0
LINE
  8
1
 62
7
  6
DASHDOT
 10
412.159000
 20
635.000000
 11
402.159000
 21
635.000000
  0
LINE
  8
1
 62
7
  6
DASHDOT
 10
407.159000
 20
640.000000
 11
407.159000
 21
630.000000
  0
CIRCLE
  8
1
 62
7
  6
CONTINUOUS
 10
432.159000
 20
635.000000
 40
1.650000
  0
CIRCLE
  8
1
 62
7
  6
CONTINUOUS
 10
432.159000
 20
635.000000
 40
2.000000
  0
LINE
  8
1
 62
7
  6
DASHDOT
 10
437.159000
 20
635.000000
 11
427.159000
 21
635.000000
  0
LINE
  8
1
 62
7
  6
DASHDOT
 10
432.159000
 20
640.000000
 11
432.159000
 21
630.000000
  0
CIRCLE
  8
1
 62
7
  6
CONTINUOUS
 10
432.159000
 20
660.000000
 40
1.650000
  0
CIRCLE
  8
1
 62
7
  6
CONTINUOUS
 10
432.159000
 20
660.000000
 40
2.000000
  0
LINE
  8
1
 62
7
  6
DASHDOT
 10
437.159000
 20
660.000000
 11
427.159000
 21
660.000000
  0
LINE
  8
1
 62
7
  6
DASHDOT
 10
432.159000
 20
665.000000
 11
432.159000
 21
655.000000
  0
CIRCLE
  8
1
 62
7
  6
CONTINUOUS
 10
457.159000
 20
660.000000
 40
1.650000
  0
CIRCLE
  8
1
 62
7
  6
CONTINUOUS
 10
457.159000
 20
660.000000
 40
2.000000
  0
LINE
  8
1
 62
7
  6
DASHDOT
 10
462.159000
 20
660.000000
 11
452.159000
 21
660.000000
  0
LINE
  8
1
 62
7
  6
DASHDOT
 10
457.159000
 20
665.000000
 11
457.159000
 21
655.000000
  0
CIRCLE
  8
1
 62
7
  6
CONTINUOUS
 10
457.159000
 20
635.000000
 40
1.650000
  0
CIRCLE
  8
1
 62
7
  6
CONTINUOUS
 10
457.159000
 20
635.000000
 40
2.000000
  0
LINE
  8
1
 62
7
  6
DASHDOT
 10
462.159000
 20
635.000000
 11
452.159000
 21
635.000000
  0
LINE
  8
1
 62
7
  6
DASHDOT
 10
457.159000
 20
640.000000
 11
457.159000
 21
630.000000
  0
CIRCLE
  8
1
 62
7
  6
CONTINUOUS
 10
382.159000
 20
685.000000
 40
2.000000
  0
CIRCLE
  8
1
 62
7
  6
CONTINUOUS
 10
382.159000
 20
685.000000
 40
1.650000
  0
LINE
  8
1
 62
7
  6
DASHDOT
 10
141.923000
 20
490.000000
 11
141.923000
 21
380.000000
  0
LINE
  8
1
 62
7
  6
CONTINUOUS
 10
82.923000
 20
452.500000
 11
81.923000
 21
453.500000
  0
LINE
  8
1
 62
7
  6
CONTINUOUS
 10
81.923000
 20
444.000000
 11
82.923000
 21
445.000000
  0
LINE
  8
1
 62
7
  6
CONTINUOUS
 10
82.923000
 20
425.000000
 11
81.923000
 21
426.000000
  0
LINE
  8
1
 62
7
  6
CONTINUOUS
 10
82.923000
 20
445.000000
 11
82.923000
 21
425.000000
  0
LINE
  8
1
 62
7
  6
CONTINUOUS
 10
82.923000
 20
452.500000
 11
82.923000
 21
473.000000
  0
LINE
  8
1
 62
7
  6
CONTINUOUS
 10
81.923000
 20
444.000000
 11
77.923000
 21
444.000000
  0
LINE
  8
1
 62
7
  6
CONTINUOUS
 10
77.923000
 20
444.000000
 11
77.923000
 21
397.500000
  0
LINE
  8
1
 62
7
  6
CONTINUOUS
 10
81.923000
 20
397.500000
 11
77.923000
 21
397.500000
  0
LINE
  8
1
 62
7
  6
CONTINUOUS
 10
77.673000
 20
426.000000
 11
73.673000
 21
426.000000
  0
LINE
  8
1
 62
7
  6
CONTINUOUS
 10
77.673000
 20
442.500000
 11
77.923000
 21
442.500000
  0
LINE
  8
1
 62
7
  6
CONTINUOUS
 10
77.673000
 20
427.500000
 11
77.923000
 21
427.500000
  0
LINE
  8
1
 62
7
  6
CONTINUOUS
 10
73.673000
 20
426.000000
 11
73.673000
 21
472.500000
  0
LINE
  8
1
 62
7
  6
CONTINUOUS
 10
77.673000
 20
472.500000
 11
73.673000
 21
472.500000
  0
LINE
  8
1
 62
7
  6
CONTINUOUS
 10
77.673000
 20
426.000000
 11
77.673000
 21
472.500000
  0
LINE
  8
1
 62
7
  6
CONTINUOUS
 10
81.923000
 20
472.500000
 11
77.923000
 21
472.500000
  0
LINE
  8
1
 62
7
  6
CONTINUOUS
 10
77.673000
 20
397.500000
 11
73.673000
 21
397.500000
  0
LINE
  8
1
 62
7
  6
CONTINUOUS
 10
73.673000
 20
443.500000
 11
72.673000
 21
443.500000
  0
LINE
  8
1
 62
7
  6
CONTINUOUS
 10
72.673000
 20
443.500000
 11
72.673000
 21
426.500000
  0
LINE
  8
1
 62
7
  6
CONTINUOUS
 10
72.673000
 20
426.500000
 11
73.673000
 21
426.500000
  0
LINE
  8
1
 62
7
  6
CONTINUOUS
 10
72.673000
 20
443.500000
 11
70.673000
 21
443.500000
  0
LINE
  8
1
 62
7
  6
CONTINUOUS
 10
70.673000
 20
443.500000
 11
69.673000
 21
442.500000
  0
LINE
  8
1
 62
7
  6
CONTINUOUS
 10
70.673000
 20
426.500000
 11
72.673000
 21
426.500000
  0
LINE
  8
1
 62
7
  6
CONTINUOUS
 10
69.673000
 20
442.500000
 11
69.673000
 21
427.500000
  0
LINE
  8
1
 62
7
  6
CONTINUOUS
 10
70.673000
 20
426.500000
 11
69.673000
 21
427.500000
  0
LINE
  8
1
 62
7
  6
CONTINUOUS
 10
70.673000
 20
443.500000
 11
70.673000
 21
426.500000
  0
LINE
  8
1
 62
7
  6
CONTINUOUS
 10
81.923000
 20
444.000000
 11
81.923000
 21
473.000000
  0
LINE
  8
1
 62
7
  6
CONTINUOUS
 10
77.923000
 20
444.000000
 11
77.923000
 21
472.500000
  0
LINE
  8
1
 62
7
  6
CONTINUOUS
 10
73.673000
 20
426.000000
 11
73.673000
 21
397.500000
  0
LINE
  8
1
 62
7
  6
CONTINUOUS
 10
77.673000
 20
397.500000
 11
77.673000
 21
426.000000
  0
LINE
  8
1
 62
7
  6
CONTINUOUS
 10
81.923000
 20
444.000000
 11
81.923000
 21
397.000000
  0
LINE
  8
1
 62
7
  6
CONTINUOUS
 10
82.923000
 20
417.500000
 11
81.923000
 21
416.500000
  0
LINE
  8
1
 62
7
  6
CONTINUOUS
 10
82.923000
 20
417.500000
 11
82.923000
 21
397.000000
  0
LINE
  8
1
 62
7
  6
CONTINUOUS
 10
77.673000
 20
471.000000
 11
77.923000
 21
471.000000
  0
LINE
  8
1
 62
7
  6
CONTINUOUS
 10
77.673000
 20
456.000000
 11
77.923000
 21
456.000000
  0
LINE
  8
1
 62
7
  6
CONTINUOUS
 10
77.673000
 20
414.000000
 11
77.923000
 21
414.000000
  0
LINE
  8
1
 62
7
  6
CONTINUOUS
 10
77.673000
 20
399.000000
 11
77.923000
 21
399.000000
  0
LINE
  8
1
 62
7
  6
CONTINUOUS
 10
73.673000
 20
415.000000
 11
72.673000
 21
415.000000
  0
LINE
  8
1
 62
7
  6
CONTINUOUS
 10
72.673000
 20
415.000000
 11
72.673000
 21
398.000000
  0
LINE
  8
1
 62
7
  6
CONTINUOUS
 10
72.673000
 20
398.000000
 11
73.673000
 21
398.000000
  0
LINE
  8
1
 62
7
  6
CONTINUOUS
 10
72.673000
 20
415.000000
 11
70.673000
 21
415.000000
  0
LINE
  8
1
 62
7
  6
CONTINUOUS
 10
70.673000
 20
415.000000
 11
69.673000
 21
414.000000
  0
LINE
  8
1
 62
7
  6
CONTINUOUS
 10
70.673000
 20
398.000000
 11
72.673000
 21
398.000000
  0
LINE
  8
1
 62
7
  6
CONTINUOUS
 10
69.673000
 20
414.000000
 11
69.673000
 21
399.000000
  0
LINE
  8
1
 62
7
  6
CONTINUOUS
 10
70.673000
 20
398.000000
 11
69.673000
 21
399.000000
  0
LINE
  8
1
 62
7
  6
CONTINUOUS
 10
70.673000
 20
415.000000
 11
70.673000
 21
398.000000
  0
LINE
  8
1
 62
7
  6
CONTINUOUS
 10
73.673000
 20
472.000000
 11
72.673000
 21
472.000000
  0
LINE
  8
1
 62
7
  6
CONTINUOUS
 10
72.673000
 20
472.000000
 11
72.673000
 21
455.000000
  0
LINE
  8
1
 62
7
  6
CONTINUOUS
 10
72.673000
 20
455.000000
 11
73.673000
 21
455.000000
  0
LINE
  8
1
 62
7
  6
CONTINUOUS
 10
72.673000
 20
472.000000
 11
70.673000
 21
472.000000
  0
LINE
  8
1
 62
7
  6
CONTINUOUS
 10
70.673000
 20
472.000000
 11
69.673000
 21
471.000000
  0
LINE
  8
1
 62
7
  6
CONTINUOUS
 10
70.673000
 20
455.000000
 11
72.673000
 21
455.000000
  0
LINE
  8
1
 62
7
  6
CONTINUOUS
 10
69.673000
 20
471.000000
 11
69.673000
 21
456.000000
  0
LINE
  8
1
 62
7
  6
CONTINUOUS
 10
70.673000
 20
455.000000
 11
69.673000
 21
456.000000
  0
LINE
  8
1
 62
7
  6
CONTINUOUS
 10
70.673000
 20
472.000000
 11
70.673000
 21
455.000000
  0
LINE
  8
1
 62
7
  6
CONTINUOUS
 10
200.923000
 20
452.500000
 11
201.923000
 21
453.500000
  0
LINE
  8
1
 62
7
  6
CONTINUOUS
 10
201.923000
 20
444.000000
 11
200.923000
 21
445.000000
  0
LINE
  8
1
 62
7
  6
CONTINUOUS
 10
200.923000
 20
425.000000
 11
201.923000
 21
426.000000
  0
LINE
  8
1
 62
7
  6
CONTINUOUS
 10
200.923000
 20
445.000000
 11
200.923000
 21
425.000000
  0
LINE
  8
1
 62
7
  6
CONTINUOUS
 10
200.923000
 20
452.500000
 11
200.923000
 21
473.000000
  0
LINE
  8
1
 62
7
  6
CONTINUOUS
 10
201.923000
 20
444.000000
 11
205.923000
 21
444.000000
  0
LINE
  8
1
 62
7
  6
CONTINUOUS
 10
205.923000
 20
444.000000
 11
205.923000
 21
397.500000
  0
LINE
  8
1
 62
7
  6
CONTINUOUS
 10
201.923000
 20
397.500000
 11
205.923000
 21
397.500000
  0
LINE
  8
1
 62
7
  6
CONTINUOUS
 10
206.173000
 20
426.000000
 11
210.173000
 21
426.000000
  0
LINE
  8
1
 62
7
  6
CONTINUOUS
 10
206.173000
 20
442.500000
 11
205.923000
 21
442.500000
  0
LINE
  8
1
 62
7
  6
CONTINUOUS
 10
206.173000
 20
427.500000
 11
205.923000
 21
427.500000
  0
LINE
  8
1
 62
7
  6
CONTINUOUS
 10
210.173000
 20
426.000000
 11
210.173000
 21
472.500000
  0
LINE
  8
1
 62
7
  6
CONTINUOUS
 10
206.173000
 20
472.500000
 11
210.173000
 21
472.500000
  0
LINE
  8
1
 62
7
  6
CONTINUOUS
 10
206.173000
 20
426.000000
 11
206.173000
 21
472.500000
  0
LINE
  8
1
 62
7
  6
CONTINUOUS
 10
201.923000
 20
472.500000
 11
205.923000
 21
472.500000
  0
LINE
  8
1
 62
7
  6
CONTINUOUS
 10
206.173000
 20
397.500000
 11
210.173000
 21
397.500000
  0
LINE
  8
1
 62
7
  6
CONTINUOUS
 10
210.173000
 20
443.500000
 11
211.173000
 21
443.500000
  0
LINE
  8
1
 62
7
  6
CONTINUOUS
 10
211.173000
 20
443.500000
 11
211.173000
 21
426.500000
  0
LINE
  8
1
 62
7
  6
CONTINUOUS
 10
211.173000
 20
426.500000
 11
210.173000
 21
426.500000
  0
LINE
  8
1
 62
7
  6
CONTINUOUS
 10
211.173000
 20
443.500000
 11
213.173000
 21
443.500000
  0
LINE
  8
1
 62
7
  6
CONTINUOUS
 10
213.173000
 20
443.500000
 11
214.173000
 21
442.500000
  0
LINE
  8
1
 62
7
  6
CONTINUOUS
 10
213.173000
 20
426.500000
 11
211.173000
 21
426.500000
  0
LINE
  8
1
 62
7
  6
CONTINUOUS
 10
214.173000
 20
442.500000
 11
214.173000
 21
427.500000
  0
LINE
  8
1
 62
7
  6
CONTINUOUS
 10
213.173000
 20
426.500000
 11
214.173000
 21
427.500000
  0
LINE
  8
1
 62
7
  6
CONTINUOUS
 10
213.173000
 20
443.500000
 11
213.173000
 21
426.500000
  0
LINE
  8
1
 62
7
  6
CONTINUOUS
 10
201.923000
 20
444.000000
 11
201.923000
 21
473.000000
  0
LINE
  8
1
 62
7
  6
CONTINUOUS
 10
205.923000
 20
444.000000
 11
205.923000
 21
472.500000
  0
LINE
  8
1
 62
7
  6
CONTINUOUS
 10
210.173000
 20
426.000000
 11
210.173000
 21
397.500000
  0
LINE
  8
1
 62
7
  6
CONTINUOUS
 10
206.173000
 20
397.500000
 11
206.173000
 21
426.000000
  0
LINE
  8
1
 62
7
  6
CONTINUOUS
 10
201.923000
 20
444.000000
 11
201.923000
 21
397.000000
  0
LINE
  8
1
 62
7
  6
CONTINUOUS
 10
200.923000
 20
417.500000
 11
201.923000
 21
416.500000
  0
LINE
  8
1
 62
7
  6
CONTINUOUS
 10
200.923000
 20
417.500000
 11
200.923000
 21
397.000000
  0
LINE
  8
1
 62
7
  6
CONTINUOUS
 10
206.173000
 20
471.000000
 11
205.923000
 21
471.000000
  0
LINE
  8
1
 62
7
  6
CONTINUOUS
 10
206.173000
 20
456.000000
 11
205.923000
 21
456.000000
  0
LINE
  8
1
 62
7
  6
CONTINUOUS
 10
206.173000
 20
414.000000
 11
205.923000
 21
414.000000
  0
LINE
  8
1
 62
7
  6
CONTINUOUS
 10
206.173000
 20
399.000000
 11
205.923000
 21
399.000000
  0
LINE
  8
1
 62
7
  6
CONTINUOUS
 10
210.173000
 20
415.000000
 11
211.173000
 21
415.000000
  0
LINE
  8
1
 62
7
  6
CONTINUOUS
 10
211.173000
 20
415.000000
 11
211.173000
 21
398.000000
  0
LINE
  8
1
 62
7
  6
CONTINUOUS
 10
211.173000
 20
398.000000
 11
210.173000
 21
398.000000
  0
LINE
  8
1
 62
7
  6
CONTINUOUS
 10
211.173000
 20
415.000000
 11
213.173000
 21
415.000000
  0
LINE
  8
1
 62
7
  6
CONTINUOUS
 10
213.173000
 20
415.000000
 11
214.173000
 21
414.000000
  0
LINE
  8
1
 62
7
  6
CONTINUOUS
 10
213.173000
 20
398.000000
 11
211.173000
 21
398.000000
  0
LINE
  8
1
 62
7
  6
CONTINUOUS
 10
214.173000
 20
414.000000
 11
214.173000
 21
399.000000
  0
LINE
  8
1
 62
7
  6
CONTINUOUS
 10
213.173000
 20
398.000000
 11
214.173000
 21
399.000000
  0
LINE
  8
1
 62
7
  6
CONTINUOUS
 10
213.173000
 20
415.000000
 11
213.173000
 21
398.000000
  0
LINE
  8
1
 62
7
  6
CONTINUOUS
 10
210.173000
 20
472.000000
 11
211.173000
 21
472.000000
  0
LINE
  8
1
 62
7
  6
CONTINUOUS
 10
211.173000
 20
472.000000
 11
211.173000
 21
455.000000
  0
LINE
  8
1
 62
7
  6
CONTINUOUS
 10
211.173000
 20
455.000000
 11
210.173000
 21
455.000000
  0
LINE
  8
1
 62
7
  6
CONTINUOUS
 10
211.173000
 20
472.000000
 11
213.173000
 21
472.000000
  0
LINE
  8
1
 62
7
  6
CONTINUOUS
 10
213.173000
 20
472.000000
 11
214.173000
 21
471.000000
  0
LINE
  8
1
 62
7
  6
CONTINUOUS
 10
213.173000
 20
455.000000
 11
211.173000
 21
455.000000
  0
LINE
  8
1
 62
7
  6
CONTINUOUS
 10
214.173000
 20
471.000000
 11
214.173000
 21
456.000000
  0
LINE
  8
1
 62
7
  6
CONTINUOUS
 10
213.173000
 20
455.000000
 11
214.173000
 21
456.000000
  0
LINE
  8
1
 62
7
  6
CONTINUOUS
 10
213.173000
 20
472.000000
 11
213.173000
 21
455.000000
  0
LINE
  8
1
 62
7
  6
CONTINUOUS
 10
82.923000
 20
452.500000
 11
200.923000
 21
452.500000
  0
LINE
  8
1
 62
7
  6
CONTINUOUS
 10
200.923000
 20
445.000000
 11
82.923000
 21
445.000000
  0
LINE
  8
1
 62
7
  6
CONTINUOUS
 10
82.923000
 20
425.000000
 11
200.923000
 21
425.000000
  0
LINE
  8
1
 62
7
  6
CONTINUOUS
 10
82.923000
 20
417.500000
 11
200.923000
 21
417.500000
  0
CIRCLE
  8
1
 62
7
  6
CONTINUOUS
 10
116.923000
 20
435.000000
 40
5.000000
  0
CIRCLE
  8
1
 62
7
  6
CONTINUOUS
 10
116.923000
 20
435.000000
 40
4.500000
  0
LINE
  8
1
 62
7
  6
DASHDOT
 10
116.923000
 20
429.000000
 11
116.923000
 21
441.000000
  0
CIRCLE
  8
1
 62
7
  6
CONTINUOUS
 10
166.923000
 20
435.000000
 40
5.000000
  0
CIRCLE
  8
1
 62
7
  6
CONTINUOUS
 10
166.923000
 20
435.000000
 40
4.500000
  0
LINE
  8
1
 62
7
  6
DASHDOT
 10
166.923000
 20
429.000000
 11
166.923000
 21
441.000000
  0
LINE
  8
1
 62
7
  6
CONTINUOUS
 10
147.923000
 20
412.045268
 11
135.923000
 21
412.045268
  0
LINE
  8
1
 62
7
  6
CONTINUOUS
 10
147.923000
 20
400.954732
 11
147.923000
 21
412.045268
  0
LINE
  8
1
 62
7
  6
CONTINUOUS
 10
147.923000
 20
400.954732
 11
135.923000
 21
400.954732
  0
LINE
  8
1
 62
7
  6
CONTINUOUS
 10
135.923000
 20
412.045268
 11
135.923000
 21
400.954732
  0
LINE
  8
1
 62
7
  6
DASHDOT
 10
217.173000
 20
406.500000
 11
66.673000
 21
406.500000
  0
LINE
  8
1
 62
7
  6
DASHDOT
 10
219.173000
 20
435.000000
 11
64.673000
 21
435.000000
  0
LINE
  8
1
 62
7
  6
DASHDOT
 10
217.173000
 20
463.500000
 11
66.673000
 21
463.500000
  0
CIRCLE
  8
1
 62
7
  6
CONTINUOUS
 10
198.423000
 20
406.500000
 40
2.000000
  0
CIRCLE
  8
1
 62
7
  6
CONTINUOUS
 10
198.423000
 20
406.500000
 40
1.650000
  0
LINE
  8
1
 62
7
  6
DASHDOT
 10
198.423000
 20
409.500000
 11
198.423000
 21
403.500000
  0
CIRCLE
  8
1
 62
7
  6
CONTINUOUS
 10
198.423000
 20
406.500000
 40
1.500000
  0
LINE
  8
1
 62
7
  6
CONTINUOUS
 10
199.023000
 20
405.500000
 11
199.623000
 21
406.500000
  0
LINE
  8
1
 62
7
  6
CONTINUOUS
 10
199.623000
 20
406.500000
 11
199.023000
 21
407.500000
  0
LINE
  8
1
 62
7
  6
CONTINUOUS
 10
199.023000
 20
407.500000
 11
197.823000
 21
407.500000
  0
LINE
  8
1
 62
7
  6
CONTINUOUS
 10
197.823000
 20
407.500000
 11
197.223000
 21
406.500000
  0
LINE
  8
1
 62
7
  6
CONTINUOUS
 10
197.223000
 20
406.500000
 11
197.823000
 21
405.500000
  0
LINE
  8
1
 62
7
  6
CONTINUOUS
 10
197.823000
 20
405.500000
 11
199.023000
 21
405.500000
  0
CIRCLE
  8
1
 62
7
  6
CONTINUOUS
 10
85.423000
 20
406.500000
 40
2.000000
  0
CIRCLE
  8
1
 62
7
  6
CONTINUOUS
 10
85.423000
 20
406.500000
 40
1.650000
  0
LINE
  8
1
 62
7
  6
DASHDOT
 10
85.423000
 20
409.500000
 11
85.423000
 21
403.500000
  0
CIRCLE
  8
1
 62
7
  6
CONTINUOUS
 10
85.423000
 20
406.500000
 40
1.500000
  0
LINE
  8
1
 62
7
  6
CONTINUOUS
 10
84.823000
 20
405.500000
 11
84.223000
 21
406.500000
  0
LINE
  8
1
 62
7
  6
CONTINUOUS
 10
84.223000
 20
406.500000
 11
84.823000
 21
407.500000
  0
LINE
  8
1
 62
7
  6
CONTINUOUS
 10
84.823000
 20
407.500000
 11
86.023000
 21
407.500000
  0
LINE
  8
1
 62
7
  6
CONTINUOUS
 10
86.023000
 20
407.500000
 11
86.623000
 21
406.500000
  0
LINE
  8
1
 62
7
  6
CONTINUOUS
 10
86.623000
 20
406.500000
 11
86.023000
 21
405.500000
  0
LINE
  8
1
 62
7
  6
CONTINUOUS
 10
86.023000
 20
405.500000
 11
84.823000
 21
405.500000
  0
CIRCLE
  8
1
 62
7
  6
CONTINUOUS
 10
85.423000
 20
463.500000
 40
2.000000
  0
CIRCLE
  8
1
 62
7
  6
CONTINUOUS
 10
85.423000
 20
463.500000
 40
1.650000
  0
LINE
  8
1
 62
7
  6
DASHDOT
 10
85.423000
 20
460.500000
 11
85.423000
 21
466.500000
  0
CIRCLE
  8
1
 62
7
  6
CONTINUOUS
 10
85.423000
 20
463.500000
 40
1.500000
  0
LINE
  8
1
 62
7
  6
CONTINUOUS
 10
84.823000
 20
464.500000
 11
84.223000
 21
463.500000
  0
LINE
  8
1
 62
7
  6
CONTINUOUS
 10
84.223000
 20
463.500000
 11
84.823000
 21
462.500000
  0
LINE
  8
1
 62
7
  6
CONTINUOUS
 10
84.823000
 20
462.500000
 11
86.023000
 21
462.500000
  0
LINE
  8
1
 62
7
  6
CONTINUOUS
 10
86.023000
 20
462.500000
 11
86.623000
 21
463.500000
  0
LINE
  8
1
 62
7
  6
CONTINUOUS
 10
86.623000
 20
463.500000
 11
86.023000
 21
464.500000
  0
LINE
  8
1
 62
7
  6
CONTINUOUS
 10
86.023000
 20
464.500000
 11
84.823000
 21
464.500000
  0
CIRCLE
  8
1
 62
7
  6
CONTINUOUS
 10
198.423000
 20
463.500000
 40
2.000000
  0
CIRCLE
  8
1
 62
7
  6
CONTINUOUS
 10
198.423000
 20
463.500000
 40
1.650000
  0
LINE
  8
1
 62
7
  6
DASHDOT
 10
198.423000
 20
460.500000
 11
198.423000
 21
466.500000
  0
CIRCLE
  8
1
 62
7
  6
CONTINUOUS
 10
198.423000
 20
463.500000
 40
1.500000
  0
LINE
  8
1
 62
7
  6
CONTINUOUS
 10
199.023000
 20
464.500000
 11
199.623000
 21
463.500000
  0
LINE
  8
1
 62
7
  6
CONTINUOUS
 10
199.623000
 20
463.500000
 11
199.023000
 21
462.500000
  0
LINE
  8
1
 62
7
  6
CONTINUOUS
 10
199.023000
 20
462.500000
 11
197.823000
 21
462.500000
  0
LINE
  8
1
 62
7
  6
CONTINUOUS
 10
197.823000
 20
462.500000
 11
197.223000
 21
463.500000
  0
LINE
  8
1
 62
7
  6
CONTINUOUS
 10
197.223000
 20
463.500000
 11
197.823000
 21
464.500000
  0
LINE
  8
1
 62
7
  6
CONTINUOUS
 10
197.823000
 20
464.500000
 11
199.023000
 21
464.500000
  0
ARC
  8
1
 62
7
  6
CONTINUOUS
 10
141.923000
 20
435.000000
 40
14.500000
 50
43.602819
 51
136.397181
  0
ARC
  8
1
 62
7
  6
CONTINUOUS
 10
141.923000
 20
435.000000
 40
14.500000
 50
-136.397181
 51
-43.602819
  0
ARC
  8
1
 62
7
  6
CONTINUOUS
 10
141.923000
 20
435.000000
 40
14.200000
 50
44.766995
 51
135.233005
  0
ARC
  8
1
 62
7
  6
CONTINUOUS
 10
141.923000
 20
435.000000
 40
14.200000
 50
-135.233005
 51
-44.766995
  0
ARC
  8
1
 62
7
  6
CONTINUOUS
 10
141.923000
 20
435.000000
 40
30.000000
 50
-160.528779
 51
-144.314665
  0
ARC
  8
1
 62
7
  6
CONTINUOUS
 10
141.923000
 20
435.000000
 40
30.000000
 50
144.314665
 51
160.528779
  0
ARC
  8
1
 62
7
  6
CONTINUOUS
 10
141.923000
 20
435.000000
 40
30.000000
 50
19.471221
 51
35.685335
  0
ARC
  8
1
 62
7
  6
CONTINUOUS
 10
141.923000
 20
435.000000
 40
30.000000
 50
-35.685335
 51
-19.471221
  0
ARC
  8
1
 62
7
  6
CONTINUOUS
 10
141.923000
 20
435.000000
 40
29.000000
 50
142.882737
 51
159.828729
  0
ARC
  8
1
 62
7
  6
CONTINUOUS
 10
141.923000
 20
435.000000
 40
29.000000
 50
20.171271
 51
37.117263
  0
ARC
  8
1
 62
7
  6
CONTINUOUS
 10
141.923000
 20
435.000000
 40
29.000000
 50
-37.117263
 51
-20.171271
  0
ARC
  8
1
 62
7
  6
CONTINUOUS
 10
141.923000
 20
435.000000
 40
29.000000
 50
-159.828729
 51
-142.882737
  0
LINE
  8
1
 62
7
  6
CONTINUOUS
 10
125.423000
 20
447.485281
 11
125.923000
 21
446.985281
  0
LINE
  8
1
 62
7
  6
CONTINUOUS
 10
126.423000
 20
446.485281
 11
126.923000
 21
446.985281
  0
LINE
  8
1
 62
7
  6
CONTINUOUS
 10
126.423000
 20
445.000000
 11
126.423000
 21
446.485281
  0
LINE
  8
1
 62
7
  6
CONTINUOUS
 10
125.423000
 20
447.485281
 11
125.423000
 21
452.500000
  0
LINE
  8
1
 62
7
  6
CONTINUOUS
 10
134.549551
 20
447.485281
 11
125.423000
 21
447.485281
  0
LINE
  8
1
 62
7
  6
CONTINUOUS
 10
133.761932
 20
446.985281
 11
125.923000
 21
446.985281
  0
LINE
  8
1
 62
7
  6
CONTINUOUS
 10
126.423000
 20
446.485281
 11
133.072107
 21
446.485281
  0
LINE
  8
1
 62
7
  6
DASHDOT
 10
132.423000
 20
454.500000
 11
132.423000
 21
443.000000
  0
LINE
  8
1
 62
7
  6
CONTINUOUS
 10
139.423000
 20
449.282857
 11
139.423000
 21
452.500000
  0
LINE
  8
1
 62
7
  6
CONTINUOUS
 10
126.423000
 20
423.514719
 11
126.923000
 21
423.014719
  0
LINE
  8
1
 62
7
  6
CONTINUOUS
 10
126.423000
 20
425.000000
 11
126.423000
 21
423.514719
  0
LINE
  8
1
 62
7
  6
CONTINUOUS
 10
126.423000
 20
423.514719
 11
133.072107
 21
423.514719
  0
LINE
  8
1
 62
7
  6
CONTINUOUS
 10
126.923000
 20
423.014719
 11
133.761932
 21
423.014719
  0
LINE
  8
1
 62
7
  6
DASHDOT
 10
132.423000
 20
427.000000
 11
132.423000
 21
421.014719
  0
LINE
  8
1
 62
7
  6
CONTINUOUS
 10
221.923000
 20
484.500000
 11
221.423000
 21
485.000000
  0
LINE
  8
1
 62
7
  6
CONTINUOUS
 10
221.923000
 20
473.500000
 11
221.923000
 21
484.500000
  0
LINE
  8
1
 62
7
  6
CONTINUOUS
 10
221.423000
 20
473.000000
 11
221.923000
 21
473.500000
  0
LINE
  8
1
 62
7
  6
CONTINUOUS
 10
221.423000
 20
485.000000
 11
62.423000
 21
485.000000
  0
LINE
  8
1
 62
7
  6
CONTINUOUS
 10
61.923000
 20
484.500000
 11
62.423000
 21
485.000000
  0
LINE
  8
1
 62
7
  6
CONTINUOUS
 10
62.423000
 20
473.000000
 11
221.423000
 21
473.000000
  0
LINE
  8
1
 62
7
  6
CONTINUOUS
 10
61.923000
 20
484.500000
 11
61.923000
 21
473.500000
  0
LINE
  8
1
 62
7
  6
CONTINUOUS
 10
62.423000
 20
473.000000
 11
61.923000
 21
473.500000
  0
LINE
  8
1
 62
7
  6
CONTINUOUS
 10
61.923000
 20
385.500000
 11
62.423000
 21
385.000000
  0
LINE
  8
1
 62
7
  6
CONTINUOUS
 10
61.923000
 20
396.500000
 11
61.923000
 21
385.500000
  0
LINE
  8
1
 62
7
  6
CONTINUOUS
 10
62.423000
 20
397.000000
 11
61.923000
 21
396.500000
  0
LINE
  8
1
 62
7
  6
CONTINUOUS
 10
62.423000
 20
385.000000
 11
221.423000
 21
385.000000
  0
LINE
  8
1
 62
7
  6
CONTINUOUS
 10
221.923000
 20
385.500000
 11
221.423000
 21
385.000000
  0
LINE
  8
1
 62
7
  6
CONTINUOUS
 10
221.423000
 20
397.000000
 11
62.423000
 21
397.000000
  0
LINE
  8
1
 62
7
  6
CONTINUOUS
 10
221.923000
 20
385.500000
 11
221.923000
 21
396.500000
  0
LINE
  8
1
 62
7
  6
CONTINUOUS
 10
221.423000
 20
397.000000
 11
221.923000
 21
396.500000
  0
LINE
  8
1
 62
7
  6
DASHDOT
 10
701.784000
 20
490.000000
 11
701.784000
 21
380.000000
  0
LINE
  8
1
 62
7
  6
CONTINUOUS
 10
760.784000
 20
452.500000
 11
761.784000
 21
453.500000
  0
LINE
  8
1
 62
7
  6
CONTINUOUS
 10
761.784000
 20
444.000000
 11
760.784000
 21
445.000000
  0
LINE
  8
1
 62
7
  6
CONTINUOUS
 10
760.784000
 20
425.000000
 11
761.784000
 21
426.000000
  0
LINE
  8
1
 62
7
  6
CONTINUOUS
 10
760.784000
 20
445.000000
 11
760.784000
 21
425.000000
  0
LINE
  8
1
 62
7
  6
CONTINUOUS
 10
760.784000
 20
452.500000
 11
760.784000
 21
473.000000
  0
LINE
  8
1
 62
7
  6
CONTINUOUS
 10
761.784000
 20
444.000000
 11
765.784000
 21
444.000000
  0
LINE
  8
1
 62
7
  6
CONTINUOUS
 10
765.784000
 20
444.000000
 11
765.784000
 21
397.500000
  0
LINE
  8
1
 62
7
  6
CONTINUOUS
 10
761.784000
 20
397.500000
 11
765.784000
 21
397.500000
  0
LINE
  8
1
 62
7
  6
CONTINUOUS
 10
766.034000
 20
426.000000
 11
770.034000
 21
426.000000
  0
LINE
  8
1
 62
7
  6
CONTINUOUS
 10
766.034000
 20
442.500000
 11
765.784000
 21
442.500000
  0
LINE
  8
1
 62
7
  6
CONTINUOUS
 10
766.034000
 20
427.500000
 11
765.784000
 21
427.500000
  0
LINE
  8
1
 62
7
  6
CONTINUOUS
 10
770.034000
 20
426.000000
 11
770.034000
 21
472.500000
  0
LINE
  8
1
 62
7
  6
CONTINUOUS
 10
766.034000
 20
472.500000
 11
770.034000
 21
472.500000
  0
LINE
  8
1
 62
7
  6
CONTINUOUS
 10
766.034000
 20
426.000000
 11
766.034000
 21
472.500000
  0
LINE
  8
1
 62
7
  6
CONTINUOUS
 10
761.784000
 20
472.500000
 11
765.784000
 21
472.500000
  0
LINE
  8
1
 62
7
  6
CONTINUOUS
 10
766.034000
 20
397.500000
 11
770.034000
 21
397.500000
  0
LINE
  8
1
 62
7
  6
CONTINUOUS
 10
770.034000
 20
443.500000
 11
771.034000
 21
443.500000
  0
LINE
  8
1
 62
7
  6
CONTINUOUS
 10
771.034000
 20
443.500000
 11
771.034000
 21
426.500000
  0
LINE
  8
1
 62
7
  6
CONTINUOUS
 10
771.034000
 20
426.500000
 11
770.034000
 21
426.500000
  0
LINE
  8
1
 62
7
  6
CONTINUOUS
 10
771.034000
 20
443.500000
 11
773.034000
 21
443.500000
  0
LINE
  8
1
 62
7
  6
CONTINUOUS
 10
773.034000
 20
443.500000
 11
774.034000
 21
442.500000
  0
LINE
  8
1
 62
7
  6
CONTINUOUS
 10
773.034000
 20
426.500000
 11
771.034000
 21
426.500000
  0
LINE
  8
1
 62
7
  6
CONTINUOUS
 10
774.034000
 20
442.500000
 11
774.034000
 21
427.500000
  0
LINE
  8
1
 62
7
  6
CONTINUOUS
 10
773.034000
 20
426.500000
 11
774.034000
 21
427.500000
  0
LINE
  8
1
 62
7
  6
CONTINUOUS
 10
773.034000
 20
443.500000
 11
773.034000
 21
426.500000
  0
LINE
  8
1
 62
7
  6
CONTINUOUS
 10
761.784000
 20
444.000000
 11
761.784000
 21
473.000000
  0
LINE
  8
1
 62
7
  6
CONTINUOUS
 10
765.784000
 20
444.000000
 11
765.784000
 21
472.500000
  0
LINE
  8
1
 62
7
  6
CONTINUOUS
 10
770.034000
 20
426.000000
 11
770.034000
 21
397.500000
  0
LINE
  8
1
 62
7
  6
CONTINUOUS
 10
766.034000
 20
397.500000
 11
766.034000
 21
426.000000
  0
LINE
  8
1
 62
7
  6
CONTINUOUS
 10
761.784000
 20
444.000000
 11
761.784000
 21
397.000000
  0
LINE
  8
1
 62
7
  6
CONTINUOUS
 10
760.784000
 20
417.500000
 11
761.784000
 21
416.500000
  0
LINE
  8
1
 62
7
  6
CONTINUOUS
 10
760.784000
 20
417.500000
 11
760.784000
 21
397.000000
  0
LINE
  8
1
 62
7
  6
CONTINUOUS
 10
766.034000
 20
471.000000
 11
765.784000
 21
471.000000
  0
LINE
  8
1
 62
7
  6
CONTINUOUS
 10
766.034000
 20
456.000000
 11
765.784000
 21
456.000000
  0
LINE
  8
1
 62
7
  6
CONTINUOUS
 10
766.034000
 20
414.000000
 11
765.784000
 21
414.000000
  0
LINE
  8
1
 62
7
  6
CONTINUOUS
 10
766.034000
 20
399.000000
 11
765.784000
 21
399.000000
  0
LINE
  8
1
 62
7
  6
CONTINUOUS
 10
770.034000
 20
415.000000
 11
771.034000
 21
415.000000
  0
LINE
  8
1
 62
7
  6
CONTINUOUS
 10
771.034000
 20
415.000000
 11
771.034000
 21
398.000000
  0
LINE
  8
1
 62
7
  6
CONTINUOUS
 10
771.034000
 20
398.000000
 11
770.034000
 21
398.000000
  0
LINE
  8
1
 62
7
  6
CONTINUOUS
 10
771.034000
 20
415.000000
 11
773.034000
 21
415.000000
  0
LINE
  8
1
 62
7
  6
CONTINUOUS
 10
773.034000
 20
415.000000
 11
774.034000
 21
414.000000
  0
LINE
  8
1
 62
7
  6
CONTINUOUS
 10
773.034000
 20
398.000000
 11
771.034000
 21
398.000000
  0
LINE
  8
1
 62
7
  6
CONTINUOUS
 10
774.034000
 20
414.000000
 11
774.034000
 21
399.000000
  0
LINE
  8
1
 62
7
  6
CONTINUOUS
 10
773.034000
 20
398.000000
 11
774.034000
 21
399.000000
  0
LINE
  8
1
 62
7
  6
CONTINUOUS
 10
773.034000
 20
415.000000
 11
773.034000
 21
398.000000
  0
LINE
  8
1
 62
7
  6
CONTINUOUS
 10
770.034000
 20
472.000000
 11
771.034000
 21
472.000000
  0
LINE
  8
1
 62
7
  6
CONTINUOUS
 10
771.034000
 20
472.000000
 11
771.034000
 21
455.000000
  0
LINE
  8
1
 62
7
  6
CONTINUOUS
 10
771.034000
 20
455.000000
 11
770.034000
 21
455.000000
  0
LINE
  8
1
 62
7
  6
CONTINUOUS
 10
771.034000
 20
472.000000
 11
773.034000
 21
472.000000
  0
LINE
  8
1
 62
7
  6
CONTINUOUS
 10
773.034000
 20
472.000000
 11
774.034000
 21
471.000000
  0
LINE
  8
1
 62
7
  6
CONTINUOUS
 10
773.034000
 20
455.000000
 11
771.034000
 21
455.000000
  0
LINE
  8
1
 62
7
  6
CONTINUOUS
 10
774.034000
 20
471.000000
 11
774.034000
 21
456.000000
  0
LINE
  8
1
 62
7
  6
CONTINUOUS
 10
773.034000
 20
455.000000
 11
774.034000
 21
456.000000
  0
LINE
  8
1
 62
7
  6
CONTINUOUS
 10
773.034000
 20
472.000000
 11
773.034000
 21
455.000000
  0
LINE
  8
1
 62
7
  6
CONTINUOUS
 10
642.784000
 20
452.500000
 11
641.784000
 21
453.500000
  0
LINE
  8
1
 62
7
  6
CONTINUOUS
 10
641.784000
 20
444.000000
 11
642.784000
 21
445.000000
  0
LINE
  8
1
 62
7
  6
CONTINUOUS
 10
642.784000
 20
425.000000
 11
641.784000
 21
426.000000
  0
LINE
  8
1
 62
7
  6
CONTINUOUS
 10
642.784000
 20
445.000000
 11
642.784000
 21
425.000000
  0
LINE
  8
1
 62
7
  6
CONTINUOUS
 10
642.784000
 20
452.500000
 11
642.784000
 21
473.000000
  0
LINE
  8
1
 62
7
  6
CONTINUOUS
 10
641.784000
 20
444.000000
 11
637.784000
 21
444.000000
  0
LINE
  8
1
 62
7
  6
CONTINUOUS
 10
637.784000
 20
444.000000
 11
637.784000
 21
397.500000
  0
LINE
  8
1
 62
7
  6
CONTINUOUS
 10
641.784000
 20
397.500000
 11
637.784000
 21
397.500000
  0
LINE
  8
1
 62
7
  6
CONTINUOUS
 10
637.534000
 20
426.000000
 11
633.534000
 21
426.000000
  0
LINE
  8
1
 62
7
  6
CONTINUOUS
 10
637.534000
 20
442.500000
 11
637.784000
 21
442.500000
  0
LINE
  8
1
 62
7
  6
CONTINUOUS
 10
637.534000
 20
427.500000
 11
637.784000
 21
427.500000
  0
LINE
  8
1
 62
7
  6
CONTINUOUS
 10
633.534000
 20
426.000000
 11
633.534000
 21
472.500000
  0
LINE
  8
1
 62
7
  6
CONTINUOUS
 10
637.534000
 20
472.500000
 11
633.534000
 21
472.500000
  0
LINE
  8
1
 62
7
  6
CONTINUOUS
 10
637.534000
 20
426.000000
 11
637.534000
 21
472.500000
  0
LINE
  8
1
 62
7
  6
CONTINUOUS
 10
641.784000
 20
472.500000
 11
637.784000
 21
472.500000
  0
LINE
  8
1
 62
7
  6
CONTINUOUS
 10
637.534000
 20
397.500000
 11
633.534000
 21
397.500000
  0
LINE
  8
1
 62
7
  6
CONTINUOUS
 10
633.534000
 20
443.500000
 11
632.534000
 21
443.500000
  0
LINE
  8
1
 62
7
  6
CONTINUOUS
 10
632.534000
 20
443.500000
 11
632.534000
 21
426.500000
  0
LINE
  8
1
 62
7
  6
CONTINUOUS
 10
632.534000
 20
426.500000
 11
633.534000
 21
426.500000
  0
LINE
  8
1
 62
7
  6
CONTINUOUS
 10
632.534000
 20
443.500000
 11
630.534000
 21
443.500000
  0
LINE
  8
1
 62
7
  6
CONTINUOUS
 10
630.534000
 20
443.500000
 11
629.534000
 21
442.500000
  0
LINE
  8
1
 62
7
  6
CONTINUOUS
 10
630.534000
 20
426.500000
 11
632.534000
 21
426.500000
  0
LINE
  8
1
 62
7
  6
CONTINUOUS
 10
629.534000
 20
442.500000
 11
629.534000
 21
427.500000
  0
LINE
  8
1
 62
7
  6
CONTINUOUS
 10
630.534000
 20
426.500000
 11
629.534000
 21
427.500000
  0
LINE
  8
1
 62
7
  6
CONTINUOUS
 10
630.534000
 20
443.500000
 11
630.534000
 21
426.500000
  0
LINE
  8
1
 62
7
  6
CONTINUOUS
 10
641.784000
 20
444.000000
 11
641.784000
 21
473.000000
  0
LINE
  8
1
 62
7
  6
CONTINUOUS
 10
637.784000
 20
444.000000
 11
637.784000
 21
472.500000
  0
LINE
  8
1
 62
7
  6
CONTINUOUS
 10
633.534000
 20
426.000000
 11
633.534000
 21
397.500000
  0
LINE
  8
1
 62
7
  6
CONTINUOUS
 10
637.534000
 20
397.500000
 11
637.534000
 21
426.000000
  0
LINE
  8
1
 62
7
  6
CONTINUOUS
 10
641.784000
 20
444.000000
 11
641.784000
 21
397.000000
  0
LINE
  8
1
 62
7
  6
CONTINUOUS
 10
642.784000
 20
417.500000
 11
641.784000
 21
416.500000
  0
LINE
  8
1
 62
7
  6
CONTINUOUS
 10
642.784000
 20
417.500000
 11
642.784000
 21
397.000000
  0
LINE
  8
1
 62
7
  6
CONTINUOUS
 10
637.534000
 20
471.000000
 11
637.784000
 21
471.000000
  0
LINE
  8
1
 62
7
  6
CONTINUOUS
 10
637.534000
 20
456.000000
 11
637.784000
 21
456.000000
  0
LINE
  8
1
 62
7
  6
CONTINUOUS
 10
637.534000
 20
414.000000
 11
637.784000
 21
414.000000
  0
LINE
  8
1
 62
7
  6
CONTINUOUS
 10
637.534000
 20
399.000000
 11
637.784000
 21
399.000000
  0
LINE
  8
1
 62
7
  6
CONTINUOUS
 10
633.534000
 20
415.000000
 11
632.534000
 21
415.000000
  0
LINE
  8
1
 62
7
  6
CONTINUOUS
 10
632.534000
 20
415.000000
 11
632.534000
 21
398.000000
  0
LINE
  8
1
 62
7
  6
CONTINUOUS
 10
632.534000
 20
398.000000
 11
633.534000
 21
398.000000
  0
LINE
  8
1
 62
7
  6
CONTINUOUS
 10
632.534000
 20
415.000000
 11
630.534000
 21
415.000000
  0
LINE
  8
1
 62
7
  6
CONTINUOUS
 10
630.534000
 20
415.000000
 11
629.534000
 21
414.000000
  0
LINE
  8
1
 62
7
  6
CONTINUOUS
 10
630.534000
 20
398.000000
 11
632.534000
 21
398.000000
  0
LINE
  8
1
 62
7
  6
CONTINUOUS
 10
629.534000
 20
414.000000
 11
629.534000
 21
399.000000
  0
LINE
  8
1
 62
7
  6
CONTINUOUS
 10
630.534000
 20
398.000000
 11
629.534000
 21
399.000000
  0
LINE
  8
1
 62
7
  6
CONTINUOUS
 10
630.534000
 20
415.000000
 11
630.534000
 21
398.000000
  0
LINE
  8
1
 62
7
  6
CONTINUOUS
 10
633.534000
 20
472.000000
 11
632.534000
 21
472.000000
  0
LINE
  8
1
 62
7
  6
CONTINUOUS
 10
632.534000
 20
472.000000
 11
632.534000
 21
455.000000
  0
LINE
  8
1
 62
7
  6
CONTINUOUS
 10
632.534000
 20
455.000000
 11
633.534000
 21
455.000000
  0
LINE
  8
1
 62
7
  6
CONTINUOUS
 10
632.534000
 20
472.000000
 11
630.534000
 21
472.000000
  0
LINE
  8
1
 62
7
  6
CONTINUOUS
 10
630.534000
 20
472.000000
 11
629.534000
 21
471.000000
  0
LINE
  8
1
 62
7
  6
CONTINUOUS
 10
630.534000
 20
455.000000
 11
632.534000
 21
455.000000
  0
LINE
  8
1
 62
7
  6
CONTINUOUS
 10
629.534000
 20
471.000000
 11
629.534000
 21
456.000000
  0
LINE
  8
1
 62
7
  6
CONTINUOUS
 10
630.534000
 20
455.000000
 11
629.534000
 21
456.000000
  0
LINE
  8
1
 62
7
  6
CONTINUOUS
 10
630.534000
 20
472.000000
 11
630.534000
 21
455.000000
  0
LINE
  8
1
 62
7
  6
CONTINUOUS
 10
695.784000
 20
400.954732
 11
707.784000
 21
400.954732
  0
LINE
  8
1
 62
7
  6
DASHDOT
 10
626.534000
 20
406.500000
 11
777.034000
 21
406.500000
  0
LINE
  8
1
 62
7
  6
DASHDOT
 10
624.534000
 20
435.000000
 11
779.034000
 21
435.000000
  0
LINE
  8
1
 62
7
  6
DASHDOT
 10
626.534000
 20
463.500000
 11
777.034000
 21
463.500000
  0
CIRCLE
  8
1
 62
7
  6
CONTINUOUS
 10
645.284000
 20
406.500000
 40
2.000000
  0
CIRCLE
  8
1
 62
7
  6
CONTINUOUS
 10
645.284000
 20
406.500000
 40
1.650000
  0
LINE
  8
1
 62
7
  6
DASHDOT
 10
645.284000
 20
409.500000
 11
645.284000
 21
403.500000
  0
CIRCLE
  8
1
 62
7
  6
CONTINUOUS
 10
645.284000
 20
406.500000
 40
1.500000
  0
LINE
  8
1
 62
7
  6
CONTINUOUS
 10
644.684000
 20
405.500000
 11
644.084000
 21
406.500000
  0
LINE
  8
1
 62
7
  6
CONTINUOUS
 10
644.084000
 20
406.500000
 11
644.684000
 21
407.500000
  0
LINE
  8
1
 62
7
  6
CONTINUOUS
 10
644.684000
 20
407.500000
 11
645.884000
 21
407.500000
  0
LINE
  8
1
 62
7
  6
CONTINUOUS
 10
645.884000
 20
407.500000
 11
646.484000
 21
406.500000
  0
LINE
  8
1
 62
7
  6
CONTINUOUS
 10
646.484000
 20
406.500000
 11
645.884000
 21
405.500000
  0
LINE
  8
1
 62
7
  6
CONTINUOUS
 10
645.884000
 20
405.500000
 11
644.684000
 21
405.500000
  0
CIRCLE
  8
1
 62
7
  6
CONTINUOUS
 10
758.284000
 20
406.500000
 40
2.000000
  0
CIRCLE
  8
1
 62
7
  6
CONTINUOUS
 10
758.284000
 20
406.500000
 40
1.650000
  0
LINE
  8
1
 62
7
  6
DASHDOT
 10
758.284000
 20
409.500000
 11
758.284000
 21
403.500000
  0
CIRCLE
  8
1
 62
7
  6
CONTINUOUS
 10
758.284000
 20
406.500000
 40
1.500000
  0
LINE
  8
1
 62
7
  6
CONTINUOUS
 10
758.884000
 20
405.500000
 11
759.484000
 21
406.500000
  0
LINE
  8
1
 62
7
  6
CONTINUOUS
 10
759.484000
 20
406.500000
 11
758.884000
 21
407.500000
  0
LINE
  8
1
 62
7
  6
CONTINUOUS
 10
758.884000
 20
407.500000
 11
757.684000
 21
407.500000
  0
LINE
  8
1
 62
7
  6
CONTINUOUS
 10
757.684000
 20
407.500000
 11
757.084000
 21
406.500000
  0
LINE
  8
1
 62
7
  6
CONTINUOUS
 10
757.084000
 20
406.500000
 11
757.684000
 21
405.500000
  0
LINE
  8
1
 62
7
  6
CONTINUOUS
 10
757.684000
 20
405.500000
 11
758.884000
 21
405.500000
  0
CIRCLE
  8
1
 62
7
  6
CONTINUOUS
 10
758.284000
 20
463.500000
 40
2.000000
  0
CIRCLE
  8
1
 62
7
  6
CONTINUOUS
 10
758.284000
 20
463.500000
 40
1.650000
  0
LINE
  8
1
 62
7
  6
DASHDOT
 10
758.284000
 20
460.500000
 11
758.284000
 21
466.500000
  0
CIRCLE
  8
1
 62
7
  6
CONTINUOUS
 10
758.284000
 20
463.500000
 40
1.500000
  0
LINE
  8
1
 62
7
  6
CONTINUOUS
 10
758.884000
 20
464.500000
 11
759.484000
 21
463.500000
  0
LINE
  8
1
 62
7
  6
CONTINUOUS
 10
759.484000
 20
463.500000
 11
758.884000
 21
462.500000
  0
LINE
  8
1
 62
7
  6
CONTINUOUS
 10
758.884000
 20
462.500000
 11
757.684000
 21
462.500000
  0
LINE
  8
1
 62
7
  6
CONTINUOUS
 10
757.684000
 20
462.500000
 11
757.084000
 21
463.500000
  0
LINE
  8
1
 62
7
  6
CONTINUOUS
 10
757.084000
 20
463.500000
 11
757.684000
 21
464.500000
  0
LINE
  8
1
 62
7
  6
CONTINUOUS
 10
757.684000
 20
464.500000
 11
758.884000
 21
464.500000
  0
CIRCLE
  8
1
 62
7
  6
CONTINUOUS
 10
645.284000
 20
463.500000
 40
2.000000
  0
CIRCLE
  8
1
 62
7
  6
CONTINUOUS
 10
645.284000
 20
463.500000
 40
1.650000
  0
LINE
  8
1
 62
7
  6
DASHDOT
 10
645.284000
 20
460.500000
 11
645.284000
 21
466.500000
  0
CIRCLE
  8
1
 62
7
  6
CONTINUOUS
 10
645.284000
 20
463.500000
 40
1.500000
  0
LINE
  8
1
 62
7
  6
CONTINUOUS
 10
644.684000
 20
464.500000
 11
644.084000
 21
463.500000
  0
LINE
  8
1
 62
7
  6
CONTINUOUS
 10
644.084000
 20
463.500000
 11
644.684000
 21
462.500000
  0
LINE
  8
1
 62
7
  6
CONTINUOUS
 10
644.684000
 20
462.500000
 11
645.884000
 21
462.500000
  0
LINE
  8
1
 62
7
  6
CONTINUOUS
 10
645.884000
 20
462.500000
 11
646.484000
 21
463.500000
  0
LINE
  8
1
 62
7
  6
CONTINUOUS
 10
646.484000
 20
463.500000
 11
645.884000
 21
464.500000
  0
LINE
  8
1
 62
7
  6
CONTINUOUS
 10
645.884000
 20
464.500000
 11
644.684000
 21
464.500000
  0
LINE
  8
1
 62
7
  6
CONTINUOUS
 10
621.784000
 20
484.500000
 11
622.284000
 21
485.000000
  0
LINE
  8
1
 62
7
  6
CONTINUOUS
 10
621.784000
 20
473.500000
 11
621.784000
 21
484.500000
  0
LINE
  8
1
 62
7
  6
CONTINUOUS
 10
622.284000
 20
473.000000
 11
621.784000
 21
473.500000
  0
LINE
  8
1
 62
7
  6
CONTINUOUS
 10
622.284000
 20
485.000000
 11
781.284000
 21
485.000000
  0
LINE
  8
1
 62
7
  6
CONTINUOUS
 10
781.784000
 20
484.500000
 11
781.284000
 21
485.000000
  0
LINE
  8
1
 62
7
  6
CONTINUOUS
 10
781.284000
 20
473.000000
 11
622.284000
 21
473.000000
  0
LINE
  8
1
 62
7
  6
CONTINUOUS
 10
781.784000
 20
484.500000
 11
781.784000
 21
473.500000
  0
LINE
  8
1
 62
7
  6
CONTINUOUS
 10
781.284000
 20
473.000000
 11
781.784000
 21
473.500000
  0
LINE
  8
1
 62
7
  6
CONTINUOUS
 10
781.784000
 20
385.500000
 11
781.284000
 21
385.000000
  0
LINE
  8
1
 62
7
  6
CONTINUOUS
 10
781.784000
 20
396.500000
 11
781.784000
 21
385.500000
  0
LINE
  8
1
 62
7
  6
CONTINUOUS
 10
781.284000
 20
397.000000
 11
781.784000
 21
396.500000
  0
LINE
  8
1
 62
7
  6
CONTINUOUS
 10
781.284000
 20
385.000000
 11
622.284000
 21
385.000000
  0
LINE
  8
1
 62
7
  6
CONTINUOUS
 10
621.784000
 20
385.500000
 11
622.284000
 21
385.000000
  0
LINE
  8
1
 62
7
  6
CONTINUOUS
 10
622.284000
 20
397.000000
 11
781.284000
 21
397.000000
  0
LINE
  8
1
 62
7
  6
CONTINUOUS
 10
621.784000
 20
385.500000
 11
621.784000
 21
396.500000
  0
LINE
  8
1
 62
7
  6
CONTINUOUS
 10
622.284000
 20
397.000000
 11
621.784000
 21
396.500000
  0
ARC
  8
1
 62
7
  6
CONTINUOUS
 10
731.753538
 20
462.569365
 40
1.309576
 50
-67.703357
 51
-36.575573
  0
ARC
  8
1
 62
7
  6
CONTINUOUS
 10
731.360253
 20
462.880146
 40
1.810665
 50
-37.057438
 51
-11.887268
  0
ARC
  8
1
 62
7
  6
CONTINUOUS
 10
730.529736
 20
463.099145
 40
2.668833
 50
-12.815333
 51
6.534333
  0
ARC
  8
1
 62
7
  6
CONTINUOUS
 10
729.812704
 20
463.052230
 40
3.386726
 50
5.942436
 51
22.343040
  0
ARC
  8
1
 62
7
  6
CONTINUOUS
 10
729.747258
 20
463.040478
 40
3.451754
 50
22.110481
 51
38.200043
  0
ARC
  8
1
 62
7
  6
CONTINUOUS
 10
730.250249
 20
463.432026
 40
2.814342
 50
38.268318
 51
56.608682
  0
ARC
  8
1
 62
7
  6
CONTINUOUS
 10
730.744288
 20
464.155947
 40
1.938071
 50
57.024818
 51
80.515888
  0
ARC
  8
1
 62
7
  6
CONTINUOUS
 10
730.861342
 20
464.726438
 40
1.356260
 50
81.422161
 51
111.452768
  0
ARC
  8
1
 62
7
  6
CONTINUOUS
 10
730.862167
 20
464.777075
 40
1.309576
 50
112.296643
 51
143.424427
  0
ARC
  8
1
 62
7
  6
CONTINUOUS
 10
731.255452
 20
464.466293
 40
1.810665
 50
142.942562
 51
168.112732
  0
ARC
  8
1
 62
7
  6
CONTINUOUS
 10
732.085969
 20
464.247294
 40
2.668833
 50
167.184667
 51
-173.465667
  0
ARC
  8
1
 62
7
  6
CONTINUOUS
 10
732.803001
 20
464.294210
 40
3.386726
 50
-174.057564
 51
-157.656960
  0
ARC
  8
1
 62
7
  6
CONTINUOUS
 10
732.868447
 20
464.305961
 40
3.451754
 50
-157.889520
 51
-141.799957
  0
ARC
  8
1
 62
7
  6
CONTINUOUS
 10
732.365456
 20
463.914414
 40
2.814342
 50
-141.731682
 51
-123.391318
  0
ARC
  8
1
 62
7
  6
CONTINUOUS
 10
731.871417
 20
463.190492
 40
1.938071
 50
-122.975182
 51
-99.484112
  0
ARC
  8
1
 62
7
  6
CONTINUOUS
 10
731.754363
 20
462.620001
 40
1.356260
 50
-98.577839
 51
-68.547232
  0
ARC
  8
1
 62
7
  6
CONTINUOUS
 10
732.255164
 20
463.285628
 40
0.785746
 50
-67.703356
 51
-36.575573
  0
ARC
  8
1
 62
7
  6
CONTINUOUS
 10
732.019193
 20
463.472097
 40
1.086399
 50
-37.057438
 51
-11.887268
  0
ARC
  8
1
 62
7
  6
CONTINUOUS
 10
731.520883
 20
463.603496
 40
1.601300
 50
-12.815333
 51
6.534333
  0
ARC
  8
1
 62
7
  6
CONTINUOUS
 10
731.090664
 20
463.575347
 40
2.032035
 50
5.942436
 51
22.343040
  0
ARC
  8
1
 62
7
  6
CONTINUOUS
 10
731.051396
 20
463.568296
 40
2.071053
 50
22.110481
 51
38.200043
  0
ARC
  8
1
 62
7
  6
CONTINUOUS
 10
731.353190
 20
463.803224
 40
1.688605
 50
38.268318
 51
56.608682
  0
ARC
  8
1
 62
7
  6
CONTINUOUS
 10
731.649614
 20
464.237577
 40
1.162843
 50
57.024818
 51
80.515888
  0
ARC
  8
1
 62
7
  6
CONTINUOUS
 10
731.719846
 20
464.579872
 40
0.813756
 50
81.422161
 51
111.452768
  0
ARC
  8
1
 62
7
  6
CONTINUOUS
 10
731.720341
 20
464.610254
 40
0.785746
 50
112.296643
 51
143.424427
  0
ARC
  8
1
 62
7
  6
CONTINUOUS
 10
731.956313
 20
464.423785
 40
1.086399
 50
142.942563
 51
168.112732
  0
ARC
  8
1
 62
7
  6
CONTINUOUS
 10
732.454623
 20
464.292385
 40
1.601300
 50
167.184667
 51
-173.465667
  0
ARC
  8
1
 62
7
  6
CONTINUOUS
 10
732.884841
 20
464.320535
 40
2.032036
 50
-174.057564
 51
-157.656960
  0
ARC
  8
1
 62
7
  6
CONTINUOUS
 10
732.924109
 20
464.327586
 40
2.071053
 50
-157.889520
 51
-141.799957
  0
ARC
  8
1
 62
7
  6
CONTINUOUS
 10
732.622315
 20
464.092657
 40
1.688605
 50
-141.731682
 51
-123.391318
  0
ARC
  8
1
 62
7
  6
CONTINUOUS
 10
732.325891
 20
463.658304
 40
1.162843
 50
-122.975182
 51
-99.484112
  0
ARC
  8
1
 62
7
  6
CONTINUOUS
 10
732.255659
 20
463.316010
 40
0.813756
 50
-98.577839
 51
-68.547232
  0
LINE
  8
1
 62
7
  6
DASHDOT
 10
714.228165
 20
456.718646
 11
734.798283
 21
465.092008
  0
LINE
  8
1
 62
7
  6
CONTINUOUS
 10
719.284000
 20
461.985281
 11
719.414378
 21
461.528959
  0
LINE
  8
1
 62
7
  6
CONTINUOUS
 10
721.986726
 20
457.177688
 11
732.250394
 21
461.355661
  0
LINE
  8
1
 62
7
  6
CONTINUOUS
 10
717.307578
 20
460.671356
 11
730.429690
 21
466.012900
  0
LINE
  8
1
 62
7
  6
CONTINUOUS
 10
714.891043
 20
461.985281
 11
719.284000
 21
461.985281
  0
CIRCLE
  8
1
 62
7
  6
CONTINUOUS
 10
701.784000
 20
435.000000
 40
29.000000
  0
CIRCLE
  8
1
 62
7
  6
CONTINUOUS
 10
701.784000
 20
435.000000
 40
30.000000
  0
CIRCLE
  8
1
 62
7
  6
CONTINUOUS
 10
741.784000
 20
435.000000
 40
5.000000
  0
CIRCLE
  8
1
 62
7
  6
CONTINUOUS
 10
741.784000
 20
435.000000
 40
4.500000
  0
LINE
  8
1
 62
7
  6
DASHDOT
 10
741.784000
 20
429.000000
 11
741.784000
 21
441.000000
  0
CIRCLE
  8
1
 62
7
  6
CONTINUOUS
 10
661.784000
 20
435.000000
 40
5.000000
  0
CIRCLE
  8
1
 62
7
  6
CONTINUOUS
 10
661.784000
 20
435.000000
 40
4.500000
  0
LINE
  8
1
 62
7
  6
DASHDOT
 10
661.784000
 20
429.000000
 11
661.784000
 21
441.000000
  0
LINE
  8
1
 62
7
  6
CONTINUOUS
 10
730.068271
 20
445.000000
 11
760.784000
 21
445.000000
  0
LINE
  8
1
 62
7
  6
CONTINUOUS
 10
642.784000
 20
445.000000
 11
673.499729
 21
445.000000
  0
LINE
  8
1
 62
7
  6
CONTINUOUS
 10
673.499729
 20
425.000000
 11
642.784000
 21
425.000000
  0
LINE
  8
1
 62
7
  6
CONTINUOUS
 10
760.784000
 20
425.000000
 11
730.068271
 21
425.000000
  0
LINE
  8
1
 62
7
  6
CONTINUOUS
 10
677.417014
 20
452.500000
 11
642.784000
 21
452.500000
  0
LINE
  8
1
 62
7
  6
CONTINUOUS
 10
760.784000
 20
452.500000
 11
726.150986
 21
452.500000
  0
LINE
  8
1
 62
7
  6
CONTINUOUS
 10
677.417014
 20
417.500000
 11
642.784000
 21
417.500000
  0
LINE
  8
1
 62
7
  6
CONTINUOUS
 10
760.784000
 20
417.500000
 11
726.150986
 21
417.500000
  0
LINE
  8
1
 62
7
  6
CONTINUOUS
 10
695.784000
 20
400.954732
 11
695.784000
 21
405.606123
  0
LINE
  8
1
 62
7
  6
CONTINUOUS
 10
707.784000
 20
405.606123
 11
707.784000
 21
400.954732
  0
LINE
  8
1
 62
7
  6
DASHDOT
 10
981.134000
 20
490.000000
 11
981.134000
 21
380.000000
  0
CIRCLE
  8
1
 62
7
  6
CONTINUOUS
 10
1115.663404
 20
435.000000
 40
8.500000
  0
CIRCLE
  8
1
 62
7
  6
CONTINUOUS
 10
1115.663404
 20
435.000000
 40
7.500000
  0
LINE
  8
1
 62
7
  6
DASHDOT
 10
1115.663404
 20
423.000000
 11
1115.663404
 21
447.000000
  0
LINE
  8
1
 62
7
  6
CONTINUOUS
 10
1119.549768
 20
443.117646
 11
1060.020364
 21
471.617646
  0
LINE
  8
1
 62
7
  6
CONTINUOUS
 10
1052.247636
 20
455.382354
 11
1111.777041
 21
426.882354
  0
LINE
  8
1
 62
7
  6
CONTINUOUS
 10
1119.549768
 20
426.882354
 11
1060.020364
 21
398.382354
  0
ARC
  8
1
 62
7
  6
CONTINUOUS
 10
1115.663404
 20
435.000000
 40
9.000000
 50
-115.583002
 51
64.416998
  0
ARC
  8
1
 62
7
  6
CONTINUOUS
 10
1115.663404
 20
435.000000
 40
10.000000
 50
-90.258931
 51
90.258931
  0
CIRCLE
  8
1
 62
7
  6
CONTINUOUS
 10
996.604596
 20
435.000000
 40
8.500000
  0
CIRCLE
  8
1
 62
7
  6
CONTINUOUS
 10
996.604596
 20
435.000000
 40
7.500000
  0
LINE
  8
1
 62
7
  6
DASHDOT
 10
996.604596
 20
447.000000
 11
996.604596
 21
423.000000
  0
ARC
  8
1
 62
7
  6
CONTINUOUS
 10
996.604596
 20
435.000000
 40
9.000000
 50
64.416998
 51
-115.583002
  0
ARC
  8
1
 62
7
  6
CONTINUOUS
 10
996.604596
 20
435.000000
 40
10.000000
 50
89.741069
 51
-89.741069
  0
LINE
  8
1
 62
7
  6
CONTINUOUS
 10
992.718232
 20
426.882354
 11
1052.247636
 21
398.382354
  0
LINE
  8
1
 62
7
  6
CONTINUOUS
 10
1060.020364
 20
414.617646
 11
1000.490959
 21
443.117646
  0
LINE
  8
1
 62
7
  6
CONTINUOUS
 10
992.718232
 20
443.117646
 11
1052.247636
 21
471.617646
  0
LINE
  8
1
 62
7
  6
CONTINUOUS
 10
1056.134000
 20
453.521738
 11
1017.446701
 21
435.000000
  0
LINE
  8
1
 62
7
  6
CONTINUOUS
 10
1056.134000
 20
416.478262
 11
1094.821299
 21
435.000000
  0
CIRCLE
  8
1
 62
7
  6
CONTINUOUS
 10
965.663404
 20
435.000000
 40
8.500000
  0
CIRCLE
  8
1
 62
7
  6
CONTINUOUS
 10
965.663404
 20
435.000000
 40
7.500000
  0
LINE
  8
1
 62
7
  6
DASHDOT
 10
965.663404
 20
423.000000
 11
965.663404
 21
447.000000
  0
LINE
  8
1
 62
7
  6
CONTINUOUS
 10
969.549768
 20
443.117646
 11
910.020364
 21
471.617646
  0
LINE
  8
1
 62
7
  6
CONTINUOUS
 10
902.247636
 20
455.382354
 11
961.777041
 21
426.882354
  0
LINE
  8
1
 62
7
  6
CONTINUOUS
 10
969.549768
 20
426.882354
 11
910.020364
 21
398.382354
  0
ARC
  8
1
 62
7
  6
CONTINUOUS
 10
965.663404
 20
435.000000
 40
9.000000
 50
-115.583002
 51
64.416998
  0
ARC
  8
1
 62
7
  6
CONTINUOUS
 10
965.663404
 20
435.000000
 40
10.000000
 50
-90.258931
 51
90.258931
  0
CIRCLE
  8
1
 62
7
  6
CONTINUOUS
 10
846.604596
 20
435.000000
 40
8.500000
  0
CIRCLE
  8
1
 62
7
  6
CONTINUOUS
 10
846.604596
 20
435.000000
 40
7.500000
  0
ARC
  8
1
 62
7
  6
CONTINUOUS
 10
846.604596
 20
435.000000
 40
9.000000
 50
64.416998
 51
-115.583002
  0
ARC
  8
1
 62
7
  6
CONTINUOUS
 10
846.604596
 20
435.000000
 40
10.000000
 50
89.741069
 51
-89.741069
  0
LINE
  8
1
 62
7
  6
CONTINUOUS
 10
842.718232
 20
426.882354
 11
902.247636
 21
398.382354
  0
LINE
  8
1
 62
7
  6
CONTINUOUS
 10
910.020364
 20
414.617646
 11
850.490959
 21
443.117646
  0
LINE
  8
1
 62
7
  6
CONTINUOUS
 10
842.718232
 20
443.117646
 11
902.247636
 21
471.617646
  0
LINE
  8
1
 62
7
  6
CONTINUOUS
 10
906.134000
 20
453.521738
 11
867.446701
 21
435.000000
  0
LINE
  8
1
 62
7
  6
CONTINUOUS
 10
906.134000
 20
416.478262
 11
944.821299
 21
435.000000
  0
LINE
  8
1
 62
7
  6
CONTINUOUS
 10
989.604596
 20
442.500000
 11
989.990217
 21
442.500000
  0
LINE
  8
1
 62
7
  6
CONTINUOUS
 10
989.604596
 20
427.500000
 11
989.990217
 21
427.500000
  0
LINE
  8
1
 62
7
  6
CONTINUOUS
 10
987.604596
 20
449.200000
 11
987.604596
 21
439.358899
  0
LINE
  8
1
 62
7
  6
CONTINUOUS
 10
987.904596
 20
449.500000
 11
987.604596
 21
449.200000
  0
LINE
  8
1
 62
7
  6
CONTINUOUS
 10
989.604596
 20
442.141428
 11
989.604596
 21
449.200000
  0
LINE
  8
1
 62
7
  6
CONTINUOUS
 10
989.304596
 20
449.500000
 11
987.904596
 21
449.500000
  0
LINE
  8
1
 62
7
  6
CONTINUOUS
 10
989.604596
 20
449.200000
 11
989.304596
 21
449.500000
  0
LINE
  8
1
 62
7
  6
CONTINUOUS
 10
989.604596
 20
420.800000
 11
989.604596
 21
427.858572
  0
LINE
  8
1
 62
7
  6
CONTINUOUS
 10
989.304596
 20
420.500000
 11
989.604596
 21
420.800000
  0
LINE
  8
1
 62
7
  6
CONTINUOUS
 10
987.604596
 20
430.641101
 11
987.604596
 21
420.800000
  0
LINE
  8
1
 62
7
  6
CONTINUOUS
 10
987.904596
 20
420.500000
 11
989.304596
 21
420.500000
  0
LINE
  8
1
 62
7
  6
CONTINUOUS
 10
987.604596
 20
420.800000
 11
987.904596
 21
420.500000
  0
LINE
  8
1
 62
7
  6
CONTINUOUS
 10
989.304596
 20
441.834471
 11
989.304596
 21
449.500000
  0
LINE
  8
1
 62
7
  6
CONTINUOUS
 10
989.304596
 20
420.500000
 11
989.304596
 21
428.165529
  0
LINE
  8
1
 62
7
  6
CONTINUOUS
 10
987.904596
 20
430.069483
 11
987.904596
 21
420.500000
  0
LINE
  8
1
 62
7
  6
CONTINUOUS
 10
987.904596
 20
449.500000
 11
987.904596
 21
439.930517
  0
LINE
  8
1
 62
7
  6
CONTINUOUS
 10
979.033904
 20
447.999999
 11
979.033904
 21
422.000001
  0
LINE
  8
1
 62
7
  6
CONTINUOUS
 10
978.533904
 20
447.999999
 11
975.733904
 21
447.999999
  0
LINE
  8
1
 62
7
  6
CONTINUOUS
 10
975.733904
 20
447.999999
 11
975.733904
 21
422.000001
  0
LINE
  8
1
 62
7
  6
CONTINUOUS
 10
978.533904
 20
422.000001
 11
975.733904
 21
422.000001
  0
LINE
  8
1
 62
7
  6
CONTINUOUS
 10
978.533904
 20
422.000001
 11
978.533904
 21
447.999999
  0
ARC
  8
1
 62
7
  6
CONTINUOUS
 10
977.133904
 20
444.500001
 40
2.300000
 50
34.301153
 51
52.504750
  0
ARC
  8
1
 62
7
  6
CONTINUOUS
 10
977.133904
 20
444.500001
 40
2.300000
 50
127.495250
 51
145.698847
  0
ARC
  8
1
 62
7
  6
CONTINUOUS
 10
977.133904
 20
435.000000
 40
2.300000
 50
34.301153
 51
52.504750
  0
ARC
  8
1
 62
7
  6
CONTINUOUS
 10
977.133904
 20
435.000000
 40
2.300000
 50
-52.504750
 51
-34.301153
  0
ARC
  8
1
 62
7
  6
CONTINUOUS
 10
977.133904
 20
441.717514
 40
2.300000
 50
-52.504750
 51
-34.301153
  0
ARC
  8
1
 62
7
  6
CONTINUOUS
 10
977.133904
 20
441.717514
 40
2.300000
 50
-145.698847
 51
-127.495250
  0
ARC
  8
1
 62
7
  6
CONTINUOUS
 10
977.133904
 20
441.717514
 40
2.300000
 50
127.495250
 51
145.698847
  0
ARC
  8
1
 62
7
  6
CONTINUOUS
 10
977.133904
 20
441.717514
 40
2.300000
 50
34.301153
 51
52.504750
  0
ARC
  8
1
 62
7
  6
CONTINUOUS
 10
977.133904
 20
444.500001
 40
2.300000
 50
-37.220811
 51
-34.301153
  0
ARC
  8
1
 62
7
  6
CONTINUOUS
 10
977.133904
 20
444.500001
 40
2.300000
 50
-145.698847
 51
-142.779189
  0
ARC
  8
1
 62
7
  6
CONTINUOUS
 10
977.133904
 20
425.499999
 40
2.300000
 50
-52.504750
 51
-34.301153
  0
ARC
  8
1
 62
7
  6
CONTINUOUS
 10
977.133904
 20
425.499999
 40
2.300000
 50
-145.698847
 51
-127.495250
  0
ARC
  8
1
 62
7
  6
CONTINUOUS
 10
977.133904
 20
428.282486
 40
2.300000
 50
34.301153
 51
52.504750
  0
ARC
  8
1
 62
7
  6
CONTINUOUS
 10
977.133904
 20
428.282486
 40
2.300000
 50
127.495250
 51
145.698847
  0
ARC
  8
1
 62
7
  6
CONTINUOUS
 10
977.133904
 20
428.282486
 40
2.300000
 50
-145.698847
 51
-127.495250
  0
ARC
  8
1
 62
7
  6
CONTINUOUS
 10
977.133904
 20
428.282486
 40
2.300000
 50
-52.504750
 51
-34.301153
  0
ARC
  8
1
 62
7
  6
CONTINUOUS
 10
977.133904
 20
425.499999
 40
2.300000
 50
34.301153
 51
37.220811
  0
ARC
  8
1
 62
7
  6
CONTINUOUS
 10
977.133904
 20
425.499999
 40
2.300000
 50
142.779189
 51
145.698847
  0
LINE
  8
1
 62
7
  6
CONTINUOUS
 10
981.304403
 20
447.999999
 11
979.033904
 21
447.999999
  0
ARC
  8
1
 62
7
  6
CONTINUOUS
 10
981.304404
 20
447.700001
 40
0.300000
 50
0.000000
 51
90.000000
  0
LINE
  8
1
 62
7
  6
CONTINUOUS
 10
981.304403
 20
422.000001
 11
979.033904
 21
422.000001
  0
ARC
  8
1
 62
7
  6
CONTINUOUS
 10
981.304404
 20
422.299999
 40
0.300000
 50
-90.000000
 51
0.000000
  0
LINE
  8
1
 62
7
  6
CONTINUOUS
 10
981.604404
 20
422.299999
 11
981.604404
 21
447.700001
  0
LINE
  8
1
 62
7
  6
CONTINUOUS
 10
975.233904
 20
447.999999
 11
972.963405
 21
447.999999
  0
ARC
  8
1
 62
7
  6
CONTINUOUS
 10
972.963404
 20
447.700001
 40
0.300000
 50
90.000000
 51
180.000000
  0
LINE
  8
1
 62
7
  6
CONTINUOUS
 10
975.233904
 20
422.000001
 11
972.963405
 21
422.000001
  0
ARC
  8
1
 62
7
  6
CONTINUOUS
 10
972.963404
 20
422.299999
 40
0.300000
 50
180.000000
 51
-90.000000
  0
LINE
  8
1
 62
7
  6
CONTINUOUS
 10
972.663404
 20
427.858572
 11
972.663404
 21
422.299999
  0
LINE
  8
1
 62
7
  6
CONTINUOUS
 10
972.663404
 20
447.700001
 11
972.663404
 21
442.141428
  0
LINE
  8
1
 62
7
  6
CONTINUOUS
 10
975.233904
 20
437.899229
 11
975.233904
 21
447.999999
  0
LINE
  8
1
 62
7
  6
CONTINUOUS
 10
975.233904
 20
422.000001
 11
975.233904
 21
432.100771
  0
ARC
  8
1
 62
7
  6
CONTINUOUS
 10
977.133904
 20
435.000000
 40
2.300000
 50
127.495250
 51
134.316657
  0
ARC
  8
1
 62
7
  6
CONTINUOUS
 10
977.133904
 20
435.000000
 40
2.300000
 50
-134.316657
 51
-127.495250
  0
LINE
  8
1
 62
7
  6
CONTINUOUS
 10
987.304404
 20
447.000000
 11
987.604404
 21
446.700000
  0
LINE
  8
1
 62
7
  6
CONTINUOUS
 10
987.604404
 20
423.300000
 11
987.304404
 21
423.000000
  0
LINE
  8
1
 62
7
  6
CONTINUOUS
 10
981.904404
 20
423.000000
 11
981.604404
 21
423.300000
  0
LINE
  8
1
 62
7
  6
CONTINUOUS
 10
981.904404
 20
447.000000
 11
981.604404
 21
446.700000
  0
LINE
  8
1
 62
7
  6
CONTINUOUS
 10
981.904404
 20
447.000000
 11
987.304404
 21
447.000000
  0
LINE
  8
1
 62
7
  6
CONTINUOUS
 10
987.304404
 20
423.000000
 11
981.904404
 21
423.000000
  0
LINE
  8
1
 62
7
  6
CONTINUOUS
 10
981.904404
 20
423.000000
 11
981.904404
 21
447.000000
  0
LINE
  8
1
 62
7
  6
CONTINUOUS
 10
987.304404
 20
431.324888
 11
987.304404
 21
423.000000
  0
LINE
  8
1
 62
7
  6
CONTINUOUS
 10
987.304404
 20
447.000000
 11
987.304404
 21
438.675112
  0
LINE
  8
1
 62
7
  6
CONTINUOUS
 10
879.979207
 20
429.000000
 11
932.288793
 21
429.000000
  0
LINE
  8
1
 62
7
  6
CONTINUOUS
 10
932.288793
 20
441.000000
 11
879.979207
 21
441.000000
  0
LINE
  8
1
 62
7
  6
CONTINUOUS
 10
1029.979207
 20
429.000000
 11
1082.288793
 21
429.000000
  0
LINE
  8
1
 62
7
  6
CONTINUOUS
 10
1029.979207
 20
441.000000
 11
1082.288793
 21
441.000000
  0
LINE
  8
1
 62
7
  6
CONTINUOUS
 10
1028.934831
 20
440.500000
 11
1083.333169
 21
440.500000
  0
LINE
  8
1
 62
7
  6
CONTINUOUS
 10
1028.934831
 20
429.500000
 11
1083.333169
 21
429.500000
  0
LINE
  8
1
 62
7
  6
CONTINUOUS
 10
934.377544
 20
440.000000
 11
877.890456
 21
440.000000
  0
LINE
  8
1
 62
7
  6
CONTINUOUS
 10
877.890456
 20
430.000000
 11
934.377544
 21
430.000000
  0
LINE
  8
1
 62
7
  6
CONTINUOUS
 10
1027.890456
 20
440.000000
 11
1084.377544
 21
440.000000
  0
LINE
  8
1
 62
7
  6
CONTINUOUS
 10
1084.377544
 20
430.000000
 11
1027.890456
 21
430.000000
  0
LINE
  8
1
 62
7
  6
CONTINUOUS
 10
840.604596
 20
446.485281
 11
841.104596
 21
446.985281
  0
LINE
  8
1
 62
7
  6
CONTINUOUS
 10
840.604596
 20
443.000000
 11
840.604596
 21
446.485281
  0
LINE
  8
1
 62
7
  6
CONTINUOUS
 10
849.752384
 20
446.485281
 11
840.604596
 21
446.485281
  0
LINE
  8
1
 62
7
  6
CONTINUOUS
 10
840.604596
 20
423.514719
 11
841.104596
 21
423.014719
  0
LINE
  8
1
 62
7
  6
CONTINUOUS
 10
840.604596
 20
427.000000
 11
840.604596
 21
423.514719
  0
LINE
  8
1
 62
7
  6
CONTINUOUS
 10
849.752384
 20
423.514719
 11
840.604596
 21
423.514719
  0
LINE
  8
1
 62
7
  6
CONTINUOUS
 10
841.104596
 20
423.014719
 11
850.796759
 21
423.014719
  0
LINE
  8
1
 62
7
  6
CONTINUOUS
 10
839.604596
 20
447.485281
 11
839.604596
 21
452.985281
  0
LINE
  8
1
 62
7
  6
CONTINUOUS
 10
839.604596
 20
447.485281
 11
840.104596
 21
446.985281
  0
LINE
  8
1
 62
7
  6
CONTINUOUS
 10
853.604596
 20
452.985281
 11
853.604596
 21
448.329547
  0
LINE
  8
1
 62
7
  6
CONTINUOUS
 10
851.841135
 20
447.485281
 11
839.604596
 21
447.485281
  0
LINE
  8
1
 62
7
  6
CONTINUOUS
 10
850.796759
 20
446.985281
 11
840.104596
 21
446.985281
  0
LINE
  8
1
 62
7
  6
DASHDOT
 10
846.604596
 20
463.985281
 11
846.604596
 21
421.014719
  0
LINE
  8
1
 62
7
  6
CONTINUOUS
 10
828.004404
 20
446.000000
 11
818.604404
 21
446.000000
  0
LINE
  8
1
 62
7
  6
CONTINUOUS
 10
828.604404
 20
445.400000
 11
828.004404
 21
446.000000
  0
LINE
  8
1
 62
7
  6
CONTINUOUS
 10
818.604404
 20
424.000000
 11
828.004404
 21
424.000000
  0
LINE
  8
1
 62
7
  6
CONTINUOUS
 10
828.604404
 20
424.600000
 11
828.604404
 21
445.400000
  0
LINE
  8
1
 62
7
  6
CONTINUOUS
 10
828.004404
 20
424.000000
 11
828.604404
 21
424.600000
  0
LINE
  8
1
 62
7
  6
CONTINUOUS
 10
828.004404
 20
424.000000
 11
828.004404
 21
446.000000
  0
LINE
  8
1
 62
7
  6
CONTINUOUS
 10
828.904404
 20
441.000000
 11
828.604404
 21
440.700000
  0
LINE
  8
1
 62
7
  6
CONTINUOUS
 10
828.904404
 20
429.000000
 11
828.604404
 21
429.300000
  0
LINE
  8
1
 62
7
  6
CONTINUOUS
 10
828.904404
 20
441.000000
 11
828.904404
 21
429.000000
  0
LINE
  8
1
 62
7
  6
CONTINUOUS
 10
838.604596
 20
441.000000
 11
828.904404
 21
441.000000
  0
LINE
  8
1
 62
7
  6
CONTINUOUS
 10
828.904404
 20
429.000000
 11
838.604596
 21
429.000000
  0
LINE
  8
1
 62
7
  6
DASHDOT
 10
795.604404
 20
435.000000
 11
1130.663404
 21
435.000000
  0
LINE
  8
1
 62
7
  6
CONTINUOUS
 10
1090.634000
 20
485.000000
 11
1091.134000
 21
484.500000
  0
LINE
  8
1
 62
7
  6
CONTINUOUS
 10
1091.134000
 20
484.500000
 11
1091.134000
 21
473.500000
  0
LINE
  8
1
 62
7
  6
CONTINUOUS
 10
1090.634000
 20
473.000000
 11
1091.134000
 21
473.500000
  0
LINE
  8
1
 62
7
  6
CONTINUOUS
 10
871.634000
 20
485.000000
 11
1090.634000
 21
485.000000
  0
LINE
  8
1
 62
7
  6
CONTINUOUS
 10
871.134000
 20
484.500000
 11
871.634000
 21
485.000000
  0
LINE
  8
1
 62
7
  6
CONTINUOUS
 10
1090.634000
 20
473.000000
 11
871.634000
 21
473.000000
  0
LINE
  8
1
 62
7
  6
CONTINUOUS
 10
871.134000
 20
473.500000
 11
871.134000
 21
484.500000
  0
LINE
  8
1
 62
7
  6
CONTINUOUS
 10
871.634000
 20
473.000000
 11
871.134000
 21
473.500000
  0
LINE
  8
1
 62
7
  6
CONTINUOUS
 10
871.634000
 20
397.000000
 11
871.134000
 21
396.500000
  0
LINE
  8
1
 62
7
  6
CONTINUOUS
 10
871.134000
 20
385.500000
 11
871.134000
 21
396.500000
  0
LINE
  8
1
 62
7
  6
CONTINUOUS
 10
871.634000
 20
385.000000
 11
871.134000
 21
385.500000
  0
LINE
  8
1
 62
7
  6
CONTINUOUS
 10
1090.634000
 20
385.000000
 11
871.634000
 21
385.000000
  0
LINE
  8
1
 62
7
  6
CONTINUOUS
 10
1091.134000
 20
385.500000
 11
1090.634000
 21
385.000000
  0
LINE
  8
1
 62
7
  6
CONTINUOUS
 10
1090.634000
 20
397.000000
 11
871.634000
 21
397.000000
  0
LINE
  8
1
 62
7
  6
CONTINUOUS
 10
1091.134000
 20
396.500000
 11
1091.134000
 21
385.500000
  0
LINE
  8
1
 62
7
  6
CONTINUOUS
 10
1090.634000
 20
397.000000
 11
1091.134000
 21
396.500000
  0
LINE
  8
1
 62
7
  6
CONTINUOUS
 10
1093.604596
 20
434.417497
 11
1093.604596
 21
435.582503
  0
LINE
  8
1
 62
7
  6
CONTINUOUS
 10
1093.104596
 20
434.178120
 11
1093.104596
 21
435.821880
  0
LINE
  8
1
 62
7
  6
CONTINUOUS
 10
836.604596
 20
454.985281
 11
856.604596
 21
454.985281
  0
LINE
  8
1
 62
7
  6
CONTINUOUS
 10
854.604596
 20
461.985281
 11
838.604596
 21
461.985281
  0
LINE
  8
1
 62
7
  6
CONTINUOUS
 10
854.604596
 20
461.985281
 11
856.604596
 21
454.985281
  0
LINE
  8
1
 62
7
  6
CONTINUOUS
 10
836.604596
 20
453.285281
 11
836.604596
 21
454.985281
  0
LINE
  8
1
 62
7
  6
CONTINUOUS
 10
836.904596
 20
452.985281
 11
836.604596
 21
453.285281
  0
LINE
  8
1
 62
7
  6
CONTINUOUS
 10
856.604596
 20
454.985281
 11
856.604596
 21
453.285281
  0
LINE
  8
1
 62
7
  6
CONTINUOUS
 10
856.304596
 20
452.985281
 11
836.904596
 21
452.985281
  0
LINE
  8
1
 62
7
  6
CONTINUOUS
 10
856.604596
 20
453.285281
 11
856.304596
 21
452.985281
  0
LINE
  8
1
 62
7
  6
CONTINUOUS
 10
856.604596
 20
453.285281
 11
836.604596
 21
453.285281
  0
ARC
  8
1
 62
7
  6
CONTINUOUS
 10
826.135057
 20
462.569365
 40
1.309576
 50
-143.424427
 51
-112.296643
  0
ARC
  8
1
 62
7
  6
CONTINUOUS
 10
826.528343
 20
462.880146
 40
1.810665
 50
-168.112732
 51
-142.942562
  0
ARC
  8
1
 62
7
  6
CONTINUOUS
 10
827.358860
 20
463.099145
 40
2.668833
 50
173.465667
 51
-167.184667
  0
ARC
  8
1
 62
7
  6
CONTINUOUS
 10
828.075891
 20
463.052230
 40
3.386726
 50
157.656960
 51
174.057564
  0
ARC
  8
1
 62
7
  6
CONTINUOUS
 10
828.141337
 20
463.040478
 40
3.451754
 50
141.799957
 51
157.889519
  0
ARC
  8
1
 62
7
  6
CONTINUOUS
 10
827.638347
 20
463.432026
 40
2.814342
 50
123.391318
 51
141.731682
  0
ARC
  8
1
 62
7
  6
CONTINUOUS
 10
827.144307
 20
464.155947
 40
1.938071
 50
99.484112
 51
122.975182
  0
ARC
  8
1
 62
7
  6
CONTINUOUS
 10
827.027253
 20
464.726438
 40
1.356260
 50
68.547232
 51
98.577839
  0
ARC
  8
1
 62
7
  6
CONTINUOUS
 10
827.026429
 20
464.777075
 40
1.309576
 50
36.575573
 51
67.703357
  0
ARC
  8
1
 62
7
  6
CONTINUOUS
 10
826.633143
 20
464.466293
 40
1.810665
 50
11.887268
 51
37.057438
  0
ARC
  8
1
 62
7
  6
CONTINUOUS
 10
825.802626
 20
464.247294
 40
2.668833
 50
-6.534333
 51
12.815333
  0
ARC
  8
1
 62
7
  6
CONTINUOUS
 10
825.085595
 20
464.294210
 40
3.386726
 50
-22.343040
 51
-5.942436
  0
ARC
  8
1
 62
7
  6
CONTINUOUS
 10
825.020149
 20
464.305961
 40
3.451754
 50
-38.200043
 51
-22.110480
  0
ARC
  8
1
 62
7
  6
CONTINUOUS
 10
825.523139
 20
463.914414
 40
2.814342
 50
-56.608682
 51
-38.268318
  0
ARC
  8
1
 62
7
  6
CONTINUOUS
 10
826.017179
 20
463.190492
 40
1.938071
 50
-80.515888
 51
-57.024818
  0
ARC
  8
1
 62
7
  6
CONTINUOUS
 10
826.134232
 20
462.620001
 40
1.356260
 50
-111.452768
 51
-81.422161
  0
ARC
  8
1
 62
7
  6
CONTINUOUS
 10
825.633431
 20
463.285628
 40
0.785746
 50
-143.424427
 51
-112.296644
  0
ARC
  8
1
 62
7
  6
CONTINUOUS
 10
825.869403
 20
463.472097
 40
1.086399
 50
-168.112732
 51
-142.942562
  0
ARC
  8
1
 62
7
  6
CONTINUOUS
 10
826.367713
 20
463.603496
 40
1.601300
 50
173.465667
 51
-167.184667
  0
ARC
  8
1
 62
7
  6
CONTINUOUS
 10
826.797932
 20
463.575347
 40
2.032036
 50
157.656960
 51
174.057564
  0
ARC
  8
1
 62
7
  6
CONTINUOUS
 10
826.837199
 20
463.568296
 40
2.071053
 50
141.799957
 51
157.889519
  0
ARC
  8
1
 62
7
  6
CONTINUOUS
 10
826.535405
 20
463.803224
 40
1.688605
 50
123.391318
 51
141.731682
  0
ARC
  8
1
 62
7
  6
CONTINUOUS
 10
826.238981
 20
464.237577
 40
1.162843
 50
99.484112
 51
122.975182
  0
ARC
  8
1
 62
7
  6
CONTINUOUS
 10
826.168749
 20
464.579872
 40
0.813756
 50
68.547232
 51
98.577839
  0
ARC
  8
1
 62
7
  6
CONTINUOUS
 10
826.168254
 20
464.610254
 40
0.785746
 50
36.575573
 51
67.703357
  0
ARC
  8
1
 62
7
  6
CONTINUOUS
 10
825.932283
 20
464.423785
 40
1.086399
 50
11.887268
 51
37.057437
  0
ARC
  8
1
 62
7
  6
CONTINUOUS
 10
825.433973
 20
464.292385
 40
1.601300
 50
-6.534333
 51
12.815333
  0
ARC
  8
1
 62
7
  6
CONTINUOUS
 10
825.003754
 20
464.320535
 40
2.032035
 50
-22.343040
 51
-5.942436
  0
ARC
  8
1
 62
7
  6
CONTINUOUS
 10
824.964486
 20
464.327586
 40
2.071053
 50
-38.200043
 51
-22.110480
  0
ARC
  8
1
 62
7
  6
CONTINUOUS
 10
825.266281
 20
464.092657
 40
1.688605
 50
-56.608682
 51
-38.268318
  0
ARC
  8
1
 62
7
  6
CONTINUOUS
 10
825.562704
 20
463.658304
 40
1.162843
 50
-80.515888
 51
-57.024818
  0
ARC
  8
1
 62
7
  6
CONTINUOUS
 10
825.632937
 20
463.316010
 40
0.813756
 50
-111.452768
 51
-81.422161
  0
LINE
  8
1
 62
7
  6
CONTINUOUS
 10
841.113273
 20
460.454694
 11
827.458906
 21
466.012900
  0
LINE
  8
1
 62
7
  6
CONTINUOUS
 10
839.228152
 20
455.823677
 11
825.638202
 21
461.355661
  0
LINE
  8
1
 62
7
  6
DASHDOT
 10
843.660431
 20
456.718646
 11
823.090312
 21
465.092008
  0
LINE
  8
1
 62
7
  6
CONTINUOUS
 10
837.092520
 20
456.693017
 11
836.604596
 21
454.985281
  0
LINE
  8
1
 62
7
  6
CONTINUOUS
 10
838.604596
 20
461.985281
 11
838.474218
 21
461.528959
  0
ARC
  8
1
 62
7
  6
CONTINUOUS
 10
840.616394
 20
459.243035
 40
1.309583
 50
36.574805
 51
67.702369
  0
ARC
  8
1
 62
7
  6
CONTINUOUS
 10
840.223096
 20
458.932251
 40
1.810684
 50
11.886800
 51
37.056699
  0
ARC
  8
1
 62
7
  6
CONTINUOUS
 10
839.392577
 20
458.713259
 40
2.668852
 50
-6.534644
 51
12.814854
  0
ARC
  8
1
 62
7
  6
CONTINUOUS
 10
838.675557
 20
458.760178
 40
3.386734
 50
-22.343274
 51
-5.942760
  0
ARC
  8
1
 62
7
  6
CONTINUOUS
 10
838.610122
 20
458.771925
 40
3.451750
 50
-38.200236
 51
-22.110722
  0
ARC
  8
1
 62
7
  6
CONTINUOUS
 10
839.113115
 20
458.380373
 40
2.814333
 50
-56.608845
 51
-38.268514
  0
ARC
  8
1
 62
7
  6
CONTINUOUS
 10
839.607150
 20
457.656454
 40
1.938067
 50
-80.516002
 51
-57.024982
  0
ARC
  8
1
 62
7
  6
CONTINUOUS
 10
839.724202
 20
457.085966
 40
1.356260
 50
-111.452776
 51
-81.422271
  0
CIRCLE
  8
1
 62
7
  6
CONTINUOUS
 10
843.854596
 20
430.236860
 40
1.050000
  0
CIRCLE
  8
1
 62
7
  6
CONTINUOUS
 10
849.354596
 20
439.763140
 40
1.050000
  0
LINE
  8
1
 62
7
  6
DASHDOT
 10
893.134000
 20
463.500000
 11
919.134000
 21
463.500000
  0
LINE
  8
1
 62
7
  6
DASHDOT
 10
906.134000
 20
450.500000
 11
906.134000
 21
476.500000
  0
LINE
  8
1
 62
7
  6
DASHDOT
 10
893.134000
 20
406.500000
 11
919.134000
 21
406.500000
  0
LINE
  8
1
 62
7
  6
DASHDOT
 10
906.134000
 20
419.500000
 11
906.134000
 21
393.500000
  0
CIRCLE
  8
1
 62
7
  6
CONTINUOUS
 10
906.134000
 20
406.500000
 40
7.500000
  0
CIRCLE
  8
1
 62
7
  6
CONTINUOUS
 10
906.134000
 20
406.500000
 40
8.500000
  0
CIRCLE
  8
1
 62
7
  6
CONTINUOUS
 10
906.134000
 20
463.500000
 40
8.500000
  0
CIRCLE
  8
1
 62
7
  6
CONTINUOUS
 10
906.134000
 20
463.500000
 40
7.500000
  0
ARC
  8
1
 62
7
  6
CONTINUOUS
 10
906.134000
 20
406.500000
 40
11.000000
 50
-150.679803
 51
-120.272641
  0
ARC
  8
1
 62
7
  6
CONTINUOUS
 10
906.134000
 20
463.500000
 40
9.000000
 50
-64.416998
 51
115.583002
  0
ARC
  8
1
 62
7
  6
CONTINUOUS
 10
906.134000
 20
463.500000
 40
11.000000
 50
120.272641
 51
150.679803
  0
CIRCLE
  8
1
 62
7
  6
CONTINUOUS
 10
903.384000
 20
458.736860
 40
1.050000
  0
CIRCLE
  8
1
 62
7
  6
CONTINUOUS
 10
908.884000
 20
468.263140
 40
1.050000
  0
CIRCLE
  8
1
 62
7
  6
CONTINUOUS
 10
903.384000
 20
401.736860
 40
1.050000
  0
CIRCLE
  8
1
 62
7
  6
CONTINUOUS
 10
908.884000
 20
411.263140
 40
1.050000
  0
ARC
  8
1
 62
7
  6
CONTINUOUS
 10
906.134000
 20
406.500000
 40
9.000000
 50
115.583002
 51
-64.416998
  0
ARC
  8
1
 62
7
  6
CONTINUOUS
 10
906.134000
 20
463.500000
 40
11.000000
 50
29.320197
 51
59.727359
  0
ARC
  8
1
 62
7
  6
CONTINUOUS
 10
906.134000
 20
463.500000
 40
11.000000
 50
-99.513799
 51
-80.486201
  0
ARC
  8
1
 62
7
  6
CONTINUOUS
 10
906.134000
 20
406.500000
 40
11.000000
 50
80.486201
 51
99.513799
  0
ARC
  8
1
 62
7
  6
CONTINUOUS
 10
906.134000
 20
406.500000
 40
11.000000
 50
-59.727359
 51
-29.320197
  0
CIRCLE
  8
1
 62
7
  6
CONTINUOUS
 10
968.413404
 20
439.763140
 40
1.050000
  0
CIRCLE
  8
1
 62
7
  6
CONTINUOUS
 10
962.913404
 20
430.236860
 40
1.050000
  0
CIRCLE
  8
1
 62
7
  6
CONTINUOUS
 10
993.854596
 20
430.236860
 40
1.050000
  0
CIRCLE
  8
1
 62
7
  6
CONTINUOUS
 10
999.354596
 20
439.763140
 40
1.050000
  0
LINE
  8
1
 62
7
  6
DASHDOT
 10
1043.134000
 20
463.500000
 11
1069.134000
 21
463.500000
  0
LINE
  8
1
 62
7
  6
DASHDOT
 10
1056.134000
 20
450.500000
 11
1056.134000
 21
476.500000
  0
LINE
  8
1
 62
7
  6
DASHDOT
 10
1043.134000
 20
406.500000
 11
1069.134000
 21
406.500000
  0
LINE
  8
1
 62
7
  6
DASHDOT
 10
1056.134000
 20
419.500000
 11
1056.134000
 21
393.500000
  0
CIRCLE
  8
1
 62
7
  6
CONTINUOUS
 10
1056.134000
 20
406.500000
 40
7.500000
  0
CIRCLE
  8
1
 62
7
  6
CONTINUOUS
 10
1056.134000
 20
406.500000
 40
8.500000
  0
CIRCLE
  8
1
 62
7
  6
CONTINUOUS
 10
1056.134000
 20
463.500000
 40
8.500000
  0
CIRCLE
  8
1
 62
7
  6
CONTINUOUS
 10
1056.134000
 20
463.500000
 40
7.500000
  0
ARC
  8
1
 62
7
  6
CONTINUOUS
 10
1056.134000
 20
406.500000
 40
11.000000
 50
-150.679803
 51
-120.272641
  0
ARC
  8
1
 62
7
  6
CONTINUOUS
 10
1056.134000
 20
463.500000
 40
9.000000
 50
-64.416998
 51
115.583002
  0
ARC
  8
1
 62
7
  6
CONTINUOUS
 10
1056.134000
 20
463.500000
 40
11.000000
 50
120.272641
 51
150.679803
  0
CIRCLE
  8
1
 62
7
  6
CONTINUOUS
 10
1053.384000
 20
458.736860
 40
1.050000
  0
CIRCLE
  8
1
 62
7
  6
CONTINUOUS
 10
1058.884000
 20
468.263140
 40
1.050000
  0
CIRCLE
  8
1
 62
7
  6
CONTINUOUS
 10
1053.384000
 20
401.736860
 40
1.050000
  0
CIRCLE
  8
1
 62
7
  6
CONTINUOUS
 10
1058.884000
 20
411.263140
 40
1.050000
  0
ARC
  8
1
 62
7
  6
CONTINUOUS
 10
1056.134000
 20
406.500000
 40
9.000000
 50
115.583002
 51
-64.416998
  0
ARC
  8
1
 62
7
  6
CONTINUOUS
 10
1056.134000
 20
406.500000
 40
11.000000
 50
80.486201
 51
99.513799
  0
ARC
  8
1
 62
7
  6
CONTINUOUS
 10
1056.134000
 20
406.500000
 40
11.000000
 50
-59.727359
 51
-29.320197
  0
ARC
  8
1
 62
7
  6
CONTINUOUS
 10
1056.134000
 20
463.500000
 40
11.000000
 50
29.320197
 51
59.727359
  0
ARC
  8
1
 62
7
  6
CONTINUOUS
 10
1056.134000
 20
463.500000
 40
11.000000
 50
-99.513799
 51
-80.486201
  0
CIRCLE
  8
1
 62
7
  6
CONTINUOUS
 10
1118.413404
 20
439.763140
 40
1.050000
  0
CIRCLE
  8
1
 62
7
  6
CONTINUOUS
 10
1112.913404
 20
430.236860
 40
1.050000
  0
LINE
  8
1
 62
7
  6
CONTINUOUS
 10
818.604404
 20
464.000000
 11
817.604404
 21
465.000000
  0
LINE
  8
1
 62
7
  6
CONTINUOUS
 10
817.604404
 20
465.000000
 11
801.604404
 21
465.000000
  0
LINE
  8
1
 62
7
  6
CONTINUOUS
 10
800.604404
 20
464.000000
 11
801.604404
 21
465.000000
  0
LINE
  8
1
 62
7
  6
CONTINUOUS
 10
818.604404
 20
406.000000
 11
818.604404
 21
464.000000
  0
LINE
  8
1
 62
7
  6
CONTINUOUS
 10
817.604404
 20
405.000000
 11
818.604404
 21
406.000000
  0
LINE
  8
1
 62
7
  6
CONTINUOUS
 10
800.604404
 20
464.000000
 11
800.604404
 21
406.000000
  0
LINE
  8
1
 62
7
  6
CONTINUOUS
 10
801.604404
 20
405.000000
 11
817.604404
 21
405.000000
  0
LINE
  8
1
 62
7
  6
CONTINUOUS
 10
800.604404
 20
406.000000
 11
801.604404
 21
405.000000
  0
LINE
  8
1
 62
7
  6
CONTINUOUS
 10
801.604404
 20
465.000000
 11
801.604404
 21
405.000000
  0
LINE
  8
1
 62
7
  6
CONTINUOUS
 10
817.604404
 20
405.000000
 11
817.604404
 21
465.000000
  0
LINE
  8
1
 62
7
  6
CONTINUOUS
 10
802.604404
 20
465.000000
 11
802.604404
 21
405.000000
  0
LINE
  8
1
 62
7
  6
CONTINUOUS
 10
816.604404
 20
405.000000
 11
816.604404
 21
465.000000
  0
LINE
  8
1
 62
7
  6
CONTINUOUS
 10
813.337163
 20
415.865132
 11
816.604404
 21
415.865132
  0
LINE
  8
1
 62
7
  6
CONTINUOUS
 10
816.604404
 20
413.865132
 11
808.095784
 21
413.865132
  0
LINE
  8
1
 62
7
  6
CONTINUOUS
 10
802.854404
 20
411.865132
 11
816.604404
 21
411.865132
  0
LINE
  8
1
 62
7
  6
CONTINUOUS
 10
816.604404
 20
409.865132
 11
802.604404
 21
409.865132
  0
LINE
  8
1
 62
7
  6
CONTINUOUS
 10
802.604404
 20
407.865132
 11
816.604404
 21
407.865132
  0
LINE
  8
1
 62
7
  6
CONTINUOUS
 10
816.604404
 20
405.865132
 11
802.604404
 21
405.865132
  0
LINE
  8
1
 62
7
  6
CONTINUOUS
 10
804.604404
 20
405.000000
 11
804.604404
 21
412.532895
  0
LINE
  8
1
 62
7
  6
CONTINUOUS
 10
806.604404
 20
413.296053
 11
806.604404
 21
405.000000
  0
LINE
  8
1
 62
7
  6
CONTINUOUS
 10
808.604404
 20
405.000000
 11
808.604404
 21
414.059211
  0
LINE
  8
1
 62
7
  6
CONTINUOUS
 10
810.604404
 20
414.822368
 11
810.604404
 21
405.000000
  0
LINE
  8
1
 62
7
  6
CONTINUOUS
 10
812.604404
 20
405.000000
 11
812.604404
 21
415.585526
  0
LINE
  8
1
 62
7
  6
CONTINUOUS
 10
814.604404
 20
416.348684
 11
814.604404
 21
405.000000
  0
LINE
  8
1
 62
7
  6
CONTINUOUS
 10
805.871646
 20
454.134868
 11
802.604404
 21
454.134868
  0
LINE
  8
1
 62
7
  6
CONTINUOUS
 10
802.604404
 20
456.134868
 11
811.113025
 21
456.134868
  0
LINE
  8
1
 62
7
  6
CONTINUOUS
 10
816.354404
 20
458.134868
 11
802.604404
 21
458.134868
  0
LINE
  8
1
 62
7
  6
CONTINUOUS
 10
802.604404
 20
460.134868
 11
816.604404
 21
460.134868
  0
LINE
  8
1
 62
7
  6
CONTINUOUS
 10
816.604404
 20
462.134868
 11
802.604404
 21
462.134868
  0
LINE
  8
1
 62
7
  6
CONTINUOUS
 10
802.604404
 20
464.134868
 11
816.604404
 21
464.134868
  0
LINE
  8
1
 62
7
  6
CONTINUOUS
 10
814.604404
 20
465.000000
 11
814.604404
 21
457.467105
  0
LINE
  8
1
 62
7
  6
CONTINUOUS
 10
812.604404
 20
456.703947
 11
812.604404
 21
465.000000
  0
LINE
  8
1
 62
7
  6
CONTINUOUS
 10
810.604404
 20
465.000000
 11
810.604404
 21
455.940789
  0
LINE
  8
1
 62
7
  6
CONTINUOUS
 10
808.604404
 20
455.177632
 11
808.604404
 21
465.000000
  0
LINE
  8
1
 62
7
  6
CONTINUOUS
 10
806.604404
 20
465.000000
 11
806.604404
 21
454.414474
  0
LINE
  8
1
 62
7
  6
CONTINUOUS
 10
804.604404
 20
453.651316
 11
804.604404
 21
465.000000
  0
LINE
  8
1
 62
7
  6
DASHDOT
 10
382.159000
 20
126.111000
 11
382.159000
 21
296.111000
  0
LINE
  8
1
 62
7
  6
DASHDOT
 10
567.688596
 20
211.111000
 11
232.629596
 21
211.111000
  0
LINE
  8
1
 62
7
  6
CONTINUOUS
 10
238.629596
 20
271.111000
 11
237.629596
 21
270.111000
  0
LINE
  8
1
 62
7
  6
CONTINUOUS
 10
257.629596
 20
270.111000
 11
256.629596
 21
271.111000
  0
LINE
  8
1
 62
7
  6
CONTINUOUS
 10
237.629596
 20
270.111000
 11
257.629596
 21
270.111000
  0
LINE
  8
1
 62
7
  6
CONTINUOUS
 10
238.629596
 20
271.111000
 11
238.629596
 21
275.111000
  0
LINE
  8
1
 62
7
  6
CONTINUOUS
 10
240.129596
 20
275.361000
 11
240.129596
 21
275.111000
  0
LINE
  8
1
 62
7
  6
CONTINUOUS
 10
255.129596
 20
275.361000
 11
255.129596
 21
275.111000
  0
LINE
  8
1
 62
7
  6
CONTINUOUS
 10
239.129596
 20
279.361000
 11
239.129596
 21
280.361000
  0
LINE
  8
1
 62
7
  6
CONTINUOUS
 10
239.129596
 20
280.361000
 11
256.129596
 21
280.361000
  0
LINE
  8
1
 62
7
  6
CONTINUOUS
 10
256.129596
 20
280.361000
 11
256.129596
 21
279.361000
  0
LINE
  8
1
 62
7
  6
CONTINUOUS
 10
239.129596
 20
280.361000
 11
239.129596
 21
282.361000
  0
LINE
  8
1
 62
7
  6
CONTINUOUS
 10
239.129596
 20
282.361000
 11
240.129596
 21
283.361000
  0
LINE
  8
1
 62
7
  6
CONTINUOUS
 10
256.129596
 20
282.361000
 11
256.129596
 21
280.361000
  0
LINE
  8
1
 62
7
  6
CONTINUOUS
 10
240.129596
 20
283.361000
 11
255.129596
 21
283.361000
  0
LINE
  8
1
 62
7
  6
CONTINUOUS
 10
256.129596
 20
282.361000
 11
255.129596
 21
283.361000
  0
LINE
  8
1
 62
7
  6
CONTINUOUS
 10
239.129596
 20
282.361000
 11
256.129596
 21
282.361000
  0
LINE
  8
1
 62
7
  6
CONTINUOUS
 10
238.629596
 20
151.111000
 11
237.629596
 21
152.111000
  0
LINE
  8
1
 62
7
  6
CONTINUOUS
 10
257.629596
 20
152.111000
 11
256.629596
 21
151.111000
  0
LINE
  8
1
 62
7
  6
CONTINUOUS
 10
237.629596
 20
152.111000
 11
257.629596
 21
152.111000
  0
LINE
  8
1
 62
7
  6
CONTINUOUS
 10
238.629596
 20
151.111000
 11
238.629596
 21
147.111000
  0
LINE
  8
1
 62
7
  6
CONTINUOUS
 10
240.129596
 20
146.861000
 11
240.129596
 21
147.111000
  0
LINE
  8
1
 62
7
  6
CONTINUOUS
 10
255.129596
 20
146.861000
 11
255.129596
 21
147.111000
  0
LINE
  8
1
 62
7
  6
CONTINUOUS
 10
239.129596
 20
142.861000
 11
239.129596
 21
141.861000
  0
LINE
  8
1
 62
7
  6
CONTINUOUS
 10
239.129596
 20
141.861000
 11
256.129596
 21
141.861000
  0
LINE
  8
1
 62
7
  6
CONTINUOUS
 10
256.129596
 20
141.861000
 11
256.129596
 21
142.861000
  0
LINE
  8
1
 62
7
  6
CONTINUOUS
 10
239.129596
 20
141.861000
 11
239.129596
 21
139.861000
  0
LINE
  8
1
 62
7
  6
CONTINUOUS
 10
239.129596
 20
139.861000
 11
240.129596
 21
138.861000
  0
LINE
  8
1
 62
7
  6
CONTINUOUS
 10
256.129596
 20
139.861000
 11
256.129596
 21
141.861000
  0
LINE
  8
1
 62
7
  6
CONTINUOUS
 10
240.129596
 20
138.861000
 11
255.129596
 21
138.861000
  0
LINE
  8
1
 62
7
  6
CONTINUOUS
 10
256.129596
 20
139.861000
 11
255.129596
 21
138.861000
  0
LINE
  8
1
 62
7
  6
CONTINUOUS
 10
239.129596
 20
139.861000
 11
256.129596
 21
139.861000
  0
LINE
  8
1
 62
7
  6
CONTINUOUS
 10
238.629596
 20
146.861000
 11
238.629596
 21
142.861000
  0
LINE
  8
1
 62
7
  6
CONTINUOUS
 10
238.629596
 20
275.361000
 11
238.629596
 21
279.361000
  0
LINE
  8
1
 62
7
  6
CONTINUOUS
 10
238.629596
 20
279.361000
 11
272.159000
 21
279.361000
  0
LINE
  8
1
 62
7
  6
CONTINUOUS
 10
238.629596
 20
275.111000
 11
272.159000
 21
275.111000
  0
LINE
  8
1
 62
7
  6
CONTINUOUS
 10
238.629596
 20
275.361000
 11
272.159000
 21
275.361000
  0
LINE
  8
1
 62
7
  6
CONTINUOUS
 10
238.629596
 20
271.111000
 11
272.159000
 21
271.111000
  0
LINE
  8
1
 62
7
  6
CONTINUOUS
 10
238.629596
 20
142.861000
 11
272.159000
 21
142.861000
  0
LINE
  8
1
 62
7
  6
CONTINUOUS
 10
238.629596
 20
147.111000
 11
272.159000
 21
147.111000
  0
LINE
  8
1
 62
7
  6
CONTINUOUS
 10
238.629596
 20
146.861000
 11
272.159000
 21
146.861000
  0
LINE
  8
1
 62
7
  6
CONTINUOUS
 10
238.629596
 20
151.111000
 11
272.159000
 21
151.111000
  0
LINE
  8
1
 62
7
  6
DASHDOT
 10
247.629596
 20
286.361000
 11
247.629596
 21
135.861000
  0
LINE
  8
1
 62
7
  6
DASHDOT
 10
275.159000
 20
236.111000
 11
234.629596
 21
236.111000
  0
LINE
  8
1
 62
7
  6
DASHDOT
 10
275.159000
 20
186.111000
 11
234.629596
 21
186.111000
  0
LINE
  8
1
 62
7
  6
CONTINUOUS
 10
257.629596
 20
181.111000
 11
272.159000
 21
181.111000
  0
LINE
  8
1
 62
7
  6
CONTINUOUS
 10
257.629596
 20
191.111000
 11
272.159000
 21
191.111000
  0
LINE
  8
1
 62
7
  6
CONTINUOUS
 10
257.629596
 20
241.111000
 11
272.159000
 21
241.111000
  0
LINE
  8
1
 62
7
  6
CONTINUOUS
 10
257.629596
 20
231.111000
 11
272.159000
 21
231.111000
  0
ARC
  8
1
 62
7
  6
CONTINUOUS
 10
237.590807
 20
240.522986
 40
0.589292
 50
20.607730
 51
86.225897
  0
ARC
  8
1
 62
7
  6
CONTINUOUS
 10
235.137613
 20
238.896096
 40
3.520420
 50
12.308026
 51
31.402463
  0
ARC
  8
1
 62
7
  6
CONTINUOUS
 10
228.425097
 20
236.991526
 40
10.493456
 50
5.648882
 51
14.656032
  0
ARC
  8
1
 62
7
  6
CONTINUOUS
 10
221.766691
 20
236.153366
 40
17.202956
 50
-0.141104
 51
6.244033
  0
ARC
  8
1
 62
7
  6
CONTINUOUS
 10
221.132222
 20
236.102457
 40
17.837375
 50
-6.130372
 51
0.027443
  0
ARC
  8
1
 62
7
  6
CONTINUOUS
 10
227.125738
 20
235.463153
 40
11.809862
 50
-14.153164
 51
-6.151749
  0
ARC
  8
1
 62
7
  6
CONTINUOUS
 10
234.265828
 20
233.675569
 40
4.449432
 50
-29.395909
 51
-14.314580
  0
ARC
  8
1
 62
7
  6
CONTINUOUS
 10
237.456835
 20
231.879518
 40
0.787697
 50
-77.330689
 51
-29.502939
  0
ARC
  8
1
 62
7
  6
CONTINUOUS
 10
257.668384
 20
240.522986
 40
0.589292
 50
93.774103
 51
159.392270
  0
ARC
  8
1
 62
7
  6
CONTINUOUS
 10
260.121578
 20
238.896096
 40
3.520420
 50
148.597537
 51
167.691974
  0
ARC
  8
1
 62
7
  6
CONTINUOUS
 10
266.834094
 20
236.991526
 40
10.493456
 50
165.343968
 51
174.351118
  0
ARC
  8
1
 62
7
  6
CONTINUOUS
 10
273.492500
 20
236.153366
 40
17.202956
 50
173.755967
 51
-179.858896
  0
ARC
  8
1
 62
7
  6
CONTINUOUS
 10
274.126969
 20
236.102457
 40
17.837375
 50
179.972557
 51
-173.869628
  0
ARC
  8
1
 62
7
  6
CONTINUOUS
 10
268.133453
 20
235.463153
 40
11.809862
 50
-173.848251
 51
-165.846836
  0
ARC
  8
1
 62
7
  6
CONTINUOUS
 10
260.993363
 20
233.675569
 40
4.449432
 50
-165.685420
 51
-150.604091
  0
ARC
  8
1
 62
7
  6
CONTINUOUS
 10
257.802356
 20
231.879518
 40
0.787697
 50
-150.497061
 51
-102.669311
  0
ARC
  8
1
 62
7
  6
CONTINUOUS
 10
257.668384
 20
181.699014
 40
0.589292
 50
-159.392270
 51
-93.774103
  0
ARC
  8
1
 62
7
  6
CONTINUOUS
 10
260.121578
 20
183.325904
 40
3.520420
 50
-167.691974
 51
-148.597537
  0
ARC
  8
1
 62
7
  6
CONTINUOUS
 10
266.834094
 20
185.230474
 40
10.493456
 50
-174.351118
 51
-165.343968
  0
ARC
  8
1
 62
7
  6
CONTINUOUS
 10
273.492500
 20
186.068634
 40
17.202956
 50
179.858896
 51
-173.755967
  0
ARC
  8
1
 62
7
  6
CONTINUOUS
 10
274.126969
 20
186.119543
 40
17.837375
 50
173.869628
 51
-179.972557
  0
ARC
  8
1
 62
7
  6
CONTINUOUS
 10
268.133453
 20
186.758847
 40
11.809862
 50
165.846836
 51
173.848251
  0
ARC
  8
1
 62
7
  6
CONTINUOUS
 10
260.993363
 20
188.546431
 40
4.449432
 50
150.604091
 51
165.685420
  0
ARC
  8
1
 62
7
  6
CONTINUOUS
 10
257.802356
 20
190.342482
 40
0.787697
 50
102.669311
 51
150.497061
  0
LINE
  8
1
 62
7
  6
CONTINUOUS
 10
257.629596
 20
181.111000
 11
257.629596
 21
152.111000
  0
LINE
  8
1
 62
7
  6
CONTINUOUS
 10
257.629596
 20
231.111000
 11
257.629596
 21
191.111000
  0
LINE
  8
1
 62
7
  6
CONTINUOUS
 10
257.629596
 20
270.111000
 11
257.629596
 21
241.111000
  0
LINE
  8
1
 62
7
  6
CONTINUOUS
 10
237.629596
 20
241.111000
 11
237.629596
 21
270.111000
  0
LINE
  8
1
 62
7
  6
CONTINUOUS
 10
237.629596
 20
231.611000
 11
237.629596
 21
240.611000
  0
LINE
  8
1
 62
7
  6
CONTINUOUS
 10
237.629596
 20
231.611000
 11
237.967760
 21
231.272835
  0
LINE
  8
1
 62
7
  6
CONTINUOUS
 10
237.967760
 20
240.949165
 11
237.629596
 21
240.611000
  0
LINE
  8
1
 62
7
  6
CONTINUOUS
 10
238.129596
 20
231.472113
 11
238.129596
 21
240.749887
  0
ARC
  8
1
 62
7
  6
CONTINUOUS
 10
237.590807
 20
181.699014
 40
0.589292
 50
-86.225897
 51
-20.607730
  0
ARC
  8
1
 62
7
  6
CONTINUOUS
 10
235.137613
 20
183.325904
 40
3.520420
 50
-31.402463
 51
-12.308026
  0
ARC
  8
1
 62
7
  6
CONTINUOUS
 10
228.425097
 20
185.230474
 40
10.493456
 50
-14.656032
 51
-5.648882
  0
ARC
  8
1
 62
7
  6
CONTINUOUS
 10
221.766691
 20
186.068634
 40
17.202956
 50
-6.244033
 51
0.141104
  0
ARC
  8
1
 62
7
  6
CONTINUOUS
 10
221.132222
 20
186.119543
 40
17.837375
 50
-0.027443
 51
6.130372
  0
ARC
  8
1
 62
7
  6
CONTINUOUS
 10
227.125738
 20
186.758847
 40
11.809862
 50
6.151749
 51
14.153164
  0
ARC
  8
1
 62
7
  6
CONTINUOUS
 10
234.265828
 20
188.546431
 40
4.449432
 50
14.314580
 51
29.395909
  0
ARC
  8
1
 62
7
  6
CONTINUOUS
 10
237.456835
 20
190.342482
 40
0.787697
 50
29.502939
 51
77.330689
  0
LINE
  8
1
 62
7
  6
CONTINUOUS
 10
237.629596
 20
190.611000
 11
237.629596
 21
181.611000
  0
LINE
  8
1
 62
7
  6
CONTINUOUS
 10
237.629596
 20
190.611000
 11
237.967760
 21
190.949165
  0
LINE
  8
1
 62
7
  6
CONTINUOUS
 10
237.967760
 20
181.272835
 11
237.629596
 21
181.611000
  0
LINE
  8
1
 62
7
  6
CONTINUOUS
 10
238.129596
 20
190.749887
 11
238.129596
 21
181.472113
  0
LINE
  8
1
 62
7
  6
CONTINUOUS
 10
237.629596
 20
191.111000
 11
237.629596
 21
231.111000
  0
LINE
  8
1
 62
7
  6
CONTINUOUS
 10
237.629596
 20
152.111000
 11
237.629596
 21
181.111000
  0
LINE
  8
1
 62
7
  6
CONTINUOUS
 10
525.688404
 20
271.111000
 11
526.688404
 21
270.111000
  0
LINE
  8
1
 62
7
  6
CONTINUOUS
 10
506.688404
 20
270.111000
 11
507.688404
 21
271.111000
  0
LINE
  8
1
 62
7
  6
CONTINUOUS
 10
526.688404
 20
270.111000
 11
506.688404
 21
270.111000
  0
LINE
  8
1
 62
7
  6
CONTINUOUS
 10
525.688404
 20
271.111000
 11
525.688404
 21
275.111000
  0
LINE
  8
1
 62
7
  6
CONTINUOUS
 10
524.188404
 20
275.361000
 11
524.188404
 21
275.111000
  0
LINE
  8
1
 62
7
  6
CONTINUOUS
 10
509.188404
 20
275.361000
 11
509.188404
 21
275.111000
  0
LINE
  8
1
 62
7
  6
CONTINUOUS
 10
525.188404
 20
279.361000
 11
525.188404
 21
280.361000
  0
LINE
  8
1
 62
7
  6
CONTINUOUS
 10
525.188404
 20
280.361000
 11
508.188404
 21
280.361000
  0
LINE
  8
1
 62
7
  6
CONTINUOUS
 10
508.188404
 20
280.361000
 11
508.188404
 21
279.361000
  0
LINE
  8
1
 62
7
  6
CONTINUOUS
 10
525.188404
 20
280.361000
 11
525.188404
 21
282.361000
  0
LINE
  8
1
 62
7
  6
CONTINUOUS
 10
525.188404
 20
282.361000
 11
524.188404
 21
283.361000
  0
LINE
  8
1
 62
7
  6
CONTINUOUS
 10
508.188404
 20
282.361000
 11
508.188404
 21
280.361000
  0
LINE
  8
1
 62
7
  6
CONTINUOUS
 10
524.188404
 20
283.361000
 11
509.188404
 21
283.361000
  0
LINE
  8
1
 62
7
  6
CONTINUOUS
 10
508.188404
 20
282.361000
 11
509.188404
 21
283.361000
  0
LINE
  8
1
 62
7
  6
CONTINUOUS
 10
525.188404
 20
282.361000
 11
508.188404
 21
282.361000
  0
LINE
  8
1
 62
7
  6
CONTINUOUS
 10
525.688404
 20
151.111000
 11
526.688404
 21
152.111000
  0
LINE
  8
1
 62
7
  6
CONTINUOUS
 10
506.688404
 20
152.111000
 11
507.688404
 21
151.111000
  0
LINE
  8
1
 62
7
  6
CONTINUOUS
 10
526.688404
 20
152.111000
 11
506.688404
 21
152.111000
  0
LINE
  8
1
 62
7
  6
CONTINUOUS
 10
525.688404
 20
151.111000
 11
525.688404
 21
147.111000
  0
LINE
  8
1
 62
7
  6
CONTINUOUS
 10
524.188404
 20
146.861000
 11
524.188404
 21
147.111000
  0
LINE
  8
1
 62
7
  6
CONTINUOUS
 10
509.188404
 20
146.861000
 11
509.188404
 21
147.111000
  0
LINE
  8
1
 62
7
  6
CONTINUOUS
 10
525.188404
 20
142.861000
 11
525.188404
 21
141.861000
  0
LINE
  8
1
 62
7
  6
CONTINUOUS
 10
525.188404
 20
141.861000
 11
508.188404
 21
141.861000
  0
LINE
  8
1
 62
7
  6
CONTINUOUS
 10
508.188404
 20
141.861000
 11
508.188404
 21
142.861000
  0
LINE
  8
1
 62
7
  6
CONTINUOUS
 10
525.188404
 20
141.861000
 11
525.188404
 21
139.861000
  0
LINE
  8
1
 62
7
  6
CONTINUOUS
 10
525.188404
 20
139.861000
 11
524.188404
 21
138.861000
  0
LINE
  8
1
 62
7
  6
CONTINUOUS
 10
508.188404
 20
139.861000
 11
508.188404
 21
141.861000
  0
LINE
  8
1
 62
7
  6
CONTINUOUS
 10
524.188404
 20
138.861000
 11
509.188404
 21
138.861000
  0
LINE
  8
1
 62
7
  6
CONTINUOUS
 10
508.188404
 20
139.861000
 11
509.188404
 21
138.861000
  0
LINE
  8
1
 62
7
  6
CONTINUOUS
 10
525.188404
 20
139.861000
 11
508.188404
 21
139.861000
  0
LINE
  8
1
 62
7
  6
CONTINUOUS
 10
525.688404
 20
146.861000
 11
525.688404
 21
142.861000
  0
LINE
  8
1
 62
7
  6
CONTINUOUS
 10
525.688404
 20
275.361000
 11
525.688404
 21
279.361000
  0
LINE
  8
1
 62
7
  6
CONTINUOUS
 10
525.688404
 20
279.361000
 11
492.159000
 21
279.361000
  0
LINE
  8
1
 62
7
  6
CONTINUOUS
 10
525.688404
 20
275.111000
 11
492.159000
 21
275.111000
  0
LINE
  8
1
 62
7
  6
CONTINUOUS
 10
525.688404
 20
275.361000
 11
492.159000
 21
275.361000
  0
LINE
  8
1
 62
7
  6
CONTINUOUS
 10
525.688404
 20
271.111000
 11
492.159000
 21
271.111000
  0
LINE
  8
1
 62
7
  6
CONTINUOUS
 10
525.688404
 20
142.861000
 11
492.159000
 21
142.861000
  0
LINE
  8
1
 62
7
  6
CONTINUOUS
 10
525.688404
 20
147.111000
 11
492.159000
 21
147.111000
  0
LINE
  8
1
 62
7
  6
CONTINUOUS
 10
525.688404
 20
146.861000
 11
492.159000
 21
146.861000
  0
LINE
  8
1
 62
7
  6
CONTINUOUS
 10
525.688404
 20
151.111000
 11
492.159000
 21
151.111000
  0
LINE
  8
1
 62
7
  6
DASHDOT
 10
489.159000
 20
171.111000
 11
529.688404
 21
171.111000
  0
LINE
  8
1
 62
7
  6
CONTINUOUS
 10
506.688404
 20
166.111000
 11
492.159000
 21
166.111000
  0
LINE
  8
1
 62
7
  6
CONTINUOUS
 10
506.688404
 20
176.111000
 11
492.159000
 21
176.111000
  0
ARC
  8
1
 62
7
  6
CONTINUOUS
 10
506.649616
 20
166.699014
 40
0.589292
 50
-86.225897
 51
-20.607730
  0
ARC
  8
1
 62
7
  6
CONTINUOUS
 10
504.196422
 20
168.325904
 40
3.520420
 50
-31.402463
 51
-12.308026
  0
ARC
  8
1
 62
7
  6
CONTINUOUS
 10
497.483906
 20
170.230474
 40
10.493456
 50
-14.656032
 51
-5.648882
  0
ARC
  8
1
 62
7
  6
CONTINUOUS
 10
490.825500
 20
171.068634
 40
17.202956
 50
-6.244033
 51
0.141104
  0
ARC
  8
1
 62
7
  6
CONTINUOUS
 10
490.191031
 20
171.119543
 40
17.837375
 50
-0.027443
 51
6.130372
  0
ARC
  8
1
 62
7
  6
CONTINUOUS
 10
496.184547
 20
171.758847
 40
11.809862
 50
6.151749
 51
14.153164
  0
ARC
  8
1
 62
7
  6
CONTINUOUS
 10
503.324637
 20
173.546431
 40
4.449432
 50
14.314580
 51
29.395909
  0
ARC
  8
1
 62
7
  6
CONTINUOUS
 10
506.515644
 20
175.342482
 40
0.787697
 50
29.502939
 51
77.330689
  0
LINE
  8
1
 62
7
  6
CONTINUOUS
 10
506.688404
 20
166.111000
 11
506.688404
 21
152.111000
  0
ARC
  8
1
 62
7
  6
CONTINUOUS
 10
526.727193
 20
166.699014
 40
0.589292
 50
-159.392270
 51
-93.774103
  0
ARC
  8
1
 62
7
  6
CONTINUOUS
 10
529.180387
 20
168.325904
 40
3.520420
 50
-167.691974
 51
-148.597537
  0
ARC
  8
1
 62
7
  6
CONTINUOUS
 10
535.892903
 20
170.230474
 40
10.493456
 50
-174.351118
 51
-165.343968
  0
ARC
  8
1
 62
7
  6
CONTINUOUS
 10
542.551309
 20
171.068634
 40
17.202956
 50
179.858896
 51
-173.755967
  0
ARC
  8
1
 62
7
  6
CONTINUOUS
 10
543.185778
 20
171.119543
 40
17.837375
 50
173.869628
 51
-179.972557
  0
ARC
  8
1
 62
7
  6
CONTINUOUS
 10
537.192262
 20
171.758847
 40
11.809862
 50
165.846836
 51
173.848251
  0
ARC
  8
1
 62
7
  6
CONTINUOUS
 10
530.052172
 20
173.546431
 40
4.449432
 50
150.604091
 51
165.685420
  0
ARC
  8
1
 62
7
  6
CONTINUOUS
 10
526.861165
 20
175.342482
 40
0.787697
 50
102.669311
 51
150.497061
  0
LINE
  8
1
 62
7
  6
CONTINUOUS
 10
526.688404
 20
175.611000
 11
526.688404
 21
166.611000
  0
LINE
  8
1
 62
7
  6
CONTINUOUS
 10
526.688404
 20
175.611000
 11
526.350240
 21
175.949165
  0
LINE
  8
1
 62
7
  6
CONTINUOUS
 10
526.350240
 20
166.272835
 11
526.688404
 21
166.611000
  0
LINE
  8
1
 62
7
  6
CONTINUOUS
 10
526.188404
 20
175.749887
 11
526.188404
 21
166.472113
  0
LINE
  8
1
 62
7
  6
CONTINUOUS
 10
526.688404
 20
152.111000
 11
526.688404
 21
166.111000
  0
LINE
  8
1
 62
7
  6
DASHDOT
 10
489.159000
 20
251.111000
 11
529.688404
 21
251.111000
  0
LINE
  8
1
 62
7
  6
CONTINUOUS
 10
506.688404
 20
256.111000
 11
492.159000
 21
256.111000
  0
LINE
  8
1
 62
7
  6
CONTINUOUS
 10
506.688404
 20
246.111000
 11
492.159000
 21
246.111000
  0
ARC
  8
1
 62
7
  6
CONTINUOUS
 10
526.727193
 20
255.522986
 40
0.589292
 50
93.774103
 51
159.392270
  0
ARC
  8
1
 62
7
  6
CONTINUOUS
 10
529.180387
 20
253.896096
 40
3.520420
 50
148.597537
 51
167.691974
  0
ARC
  8
1
 62
7
  6
CONTINUOUS
 10
535.892903
 20
251.991526
 40
10.493456
 50
165.343968
 51
174.351118
  0
ARC
  8
1
 62
7
  6
CONTINUOUS
 10
542.551309
 20
251.153366
 40
17.202956
 50
173.755967
 51
-179.858896
  0
ARC
  8
1
 62
7
  6
CONTINUOUS
 10
543.185778
 20
251.102457
 40
17.837375
 50
179.972557
 51
-173.869628
  0
ARC
  8
1
 62
7
  6
CONTINUOUS
 10
537.192262
 20
250.463153
 40
11.809862
 50
-173.848251
 51
-165.846836
  0
ARC
  8
1
 62
7
  6
CONTINUOUS
 10
530.052172
 20
248.675569
 40
4.449432
 50
-165.685420
 51
-150.604091
  0
ARC
  8
1
 62
7
  6
CONTINUOUS
 10
526.861165
 20
246.879518
 40
0.787697
 50
-150.497061
 51
-102.669311
  0
ARC
  8
1
 62
7
  6
CONTINUOUS
 10
506.649616
 20
255.522986
 40
0.589292
 50
20.607730
 51
86.225897
  0
ARC
  8
1
 62
7
  6
CONTINUOUS
 10
504.196422
 20
253.896096
 40
3.520420
 50
12.308026
 51
31.402463
  0
ARC
  8
1
 62
7
  6
CONTINUOUS
 10
497.483906
 20
251.991526
 40
10.493456
 50
5.648882
 51
14.656032
  0
ARC
  8
1
 62
7
  6
CONTINUOUS
 10
490.825500
 20
251.153366
 40
17.202956
 50
-0.141104
 51
6.244033
  0
ARC
  8
1
 62
7
  6
CONTINUOUS
 10
490.191031
 20
251.102457
 40
17.837375
 50
-6.130372
 51
0.027443
  0
ARC
  8
1
 62
7
  6
CONTINUOUS
 10
496.184547
 20
250.463153
 40
11.809862
 50
-14.153164
 51
-6.151749
  0
ARC
  8
1
 62
7
  6
CONTINUOUS
 10
503.324637
 20
248.675569
 40
4.449432
 50
-29.395909
 51
-14.314580
  0
ARC
  8
1
 62
7
  6
CONTINUOUS
 10
506.515644
 20
246.879518
 40
0.787697
 50
-77.330689
 51
-29.502939
  0
LINE
  8
1
 62
7
  6
CONTINUOUS
 10
506.688404
 20
270.111000
 11
506.688404
 21
256.111000
  0
LINE
  8
1
 62
7
  6
CONTINUOUS
 10
526.688404
 20
256.111000
 11
526.688404
 21
270.111000
  0
LINE
  8
1
 62
7
  6
CONTINUOUS
 10
526.688404
 20
246.611000
 11
526.688404
 21
255.611000
  0
LINE
  8
1
 62
7
  6
CONTINUOUS
 10
526.688404
 20
246.611000
 11
526.350240
 21
246.272835
  0
LINE
  8
1
 62
7
  6
CONTINUOUS
 10
526.350240
 20
255.949165
 11
526.688404
 21
255.611000
  0
LINE
  8
1
 62
7
  6
CONTINUOUS
 10
526.188404
 20
246.472113
 11
526.188404
 21
255.749887
  0
LINE
  8
1
 62
7
  6
DASHDOT
 10
516.688404
 20
286.361000
 11
516.688404
 21
135.861000
  0
LINE
  8
1
 62
7
  6
CONTINUOUS
 10
534.388596
 20
205.111000
 11
534.688596
 21
205.411000
  0
LINE
  8
1
 62
7
  6
CONTINUOUS
 10
534.388596
 20
217.111000
 11
534.688596
 21
216.811000
  0
LINE
  8
1
 62
7
  6
CONTINUOUS
 10
534.388596
 20
205.111000
 11
534.388596
 21
217.111000
  0
LINE
  8
1
 62
7
  6
CONTINUOUS
 10
526.688404
 20
205.111000
 11
534.388596
 21
205.111000
  0
LINE
  8
1
 62
7
  6
CONTINUOUS
 10
492.159000
 20
205.111000
 11
506.688404
 21
205.111000
  0
LINE
  8
1
 62
7
  6
CONTINUOUS
 10
526.688404
 20
217.111000
 11
534.388596
 21
217.111000
  0
LINE
  8
1
 62
7
  6
CONTINUOUS
 10
492.159000
 20
217.111000
 11
506.688404
 21
217.111000
  0
LINE
  8
1
 62
7
  6
CONTINUOUS
 10
535.288596
 20
200.111000
 11
544.688596
 21
200.111000
  0
LINE
  8
1
 62
7
  6
CONTINUOUS
 10
534.688596
 20
200.711000
 11
535.288596
 21
200.111000
  0
LINE
  8
1
 62
7
  6
CONTINUOUS
 10
544.688596
 20
222.111000
 11
535.288596
 21
222.111000
  0
LINE
  8
1
 62
7
  6
CONTINUOUS
 10
534.688596
 20
221.511000
 11
534.688596
 21
200.711000
  0
LINE
  8
1
 62
7
  6
CONTINUOUS
 10
535.288596
 20
222.111000
 11
534.688596
 21
221.511000
  0
LINE
  8
1
 62
7
  6
CONTINUOUS
 10
535.288596
 20
222.111000
 11
535.288596
 21
200.111000
  0
ARC
  8
1
 62
7
  6
CONTINUOUS
 10
526.722312
 20
206.037476
 40
0.927097
 50
-149.556184
 51
-92.096007
  0
ARC
  8
1
 62
7
  6
CONTINUOUS
 10
528.984938
 20
207.907372
 40
3.853465
 50
-164.357708
 51
-142.615956
  0
ARC
  8
1
 62
7
  6
CONTINUOUS
 10
535.190521
 20
210.098537
 40
10.429173
 50
-172.930026
 51
-161.957329
  0
ARC
  8
1
 62
7
  6
CONTINUOUS
 10
541.344783
 20
211.062289
 40
16.656450
 50
179.832442
 51
-172.245654
  0
ARC
  8
1
 62
7
  6
CONTINUOUS
 10
541.931246
 20
211.120826
 40
17.242844
 50
172.380562
 51
-179.967350
  0
ARC
  8
1
 62
7
  6
CONTINUOUS
 10
536.391895
 20
211.855886
 40
11.654940
 50
162.535836
 51
172.351519
  0
ARC
  8
1
 62
7
  6
CONTINUOUS
 10
529.791901
 20
213.912060
 40
4.742137
 50
144.671313
 51
162.302352
  0
ARC
  8
1
 62
7
  6
CONTINUOUS
 10
526.844891
 20
215.979108
 40
1.142658
 50
97.871386
 51
143.780804
  0
ARC
  8
1
 62
7
  6
CONTINUOUS
 10
506.654497
 20
206.037476
 40
0.927097
 50
-87.903993
 51
-30.443816
  0
ARC
  8
1
 62
7
  6
CONTINUOUS
 10
504.391871
 20
207.907372
 40
3.853465
 50
-37.384044
 51
-15.642292
  0
ARC
  8
1
 62
7
  6
CONTINUOUS
 10
498.186288
 20
210.098537
 40
10.429173
 50
-18.042671
 51
-7.069974
  0
ARC
  8
1
 62
7
  6
CONTINUOUS
 10
492.032026
 20
211.062289
 40
16.656450
 50
-7.754346
 51
0.167558
  0
ARC
  8
1
 62
7
  6
CONTINUOUS
 10
491.445563
 20
211.120826
 40
17.242844
 50
-0.032650
 51
7.619438
  0
ARC
  8
1
 62
7
  6
CONTINUOUS
 10
496.984914
 20
211.855886
 40
11.654940
 50
7.648481
 51
17.464164
  0
ARC
  8
1
 62
7
  6
CONTINUOUS
 10
503.584908
 20
213.912060
 40
4.742137
 50
17.697648
 51
35.328687
  0
ARC
  8
1
 62
7
  6
CONTINUOUS
 10
506.531918
 20
215.979108
 40
1.142658
 50
36.219196
 51
82.128614
  0
LINE
  8
1
 62
7
  6
CONTINUOUS
 10
526.688404
 20
217.111000
 11
526.688404
 21
246.111000
  0
LINE
  8
1
 62
7
  6
CONTINUOUS
 10
506.688404
 20
205.111000
 11
506.688404
 21
176.111000
  0
LINE
  8
1
 62
7
  6
CONTINUOUS
 10
506.688404
 20
246.111000
 11
506.688404
 21
217.111000
  0
LINE
  8
1
 62
7
  6
CONTINUOUS
 10
538.547553
 20
183.158010
 11
538.490984
 21
181.842791
  0
LINE
  8
1
 62
7
  6
CONTINUOUS
 10
535.141395
 20
179.751852
 11
536.456613
 21
179.808420
  0
LINE
  8
1
 62
7
  6
DASHDOT
 10
521.222443
 20
197.076962
 11
539.097749
 21
179.201655
  0
LINE
  8
1
 62
7
  6
DASHDOT
 10
504.688404
 20
201.611000
 11
528.688404
 21
201.611000
  0
LINE
  8
1
 62
7
  6
CONTINUOUS
 10
491.159000
 20
131.111000
 11
492.159000
 21
132.111000
  0
LINE
  8
1
 62
7
  6
CONTINUOUS
 10
492.159000
 20
132.111000
 11
492.159000
 21
290.111000
  0
LINE
  8
1
 62
7
  6
CONTINUOUS
 10
491.159000
 20
291.111000
 11
492.159000
 21
290.111000
  0
LINE
  8
1
 62
7
  6
CONTINUOUS
 10
273.159000
 20
291.111000
 11
491.159000
 21
291.111000
  0
LINE
  8
1
 62
7
  6
CONTINUOUS
 10
272.159000
 20
290.111000
 11
273.159000
 21
291.111000
  0
LINE
  8
1
 62
7
  6
CONTINUOUS
 10
491.159000
 20
131.111000
 11
273.159000
 21
131.111000
  0
LINE
  8
1
 62
7
  6
CONTINUOUS
 10
272.159000
 20
132.111000
 11
272.159000
 21
290.111000
  0
LINE
  8
1
 62
7
  6
CONTINUOUS
 10
273.159000
 20
131.111000
 11
272.159000
 21
132.111000
  0
CIRCLE
  8
1
 62
7
  6
CONTINUOUS
 10
307.159000
 20
171.111000
 40
5.000000
  0
LINE
  8
1
 62
7
  6
DASHDOT
 10
313.159000
 20
171.111000
 11
301.159000
 21
171.111000
  0
LINE
  8
1
 62
7
  6
DASHDOT
 10
307.159000
 20
177.111000
 11
307.159000
 21
165.111000
  0
CIRCLE
  8
1
 62
7
  6
CONTINUOUS
 10
307.159000
 20
171.111000
 40
4.150000
  0
LINE
  8
1
 62
7
  6
CONTINUOUS
 10
305.159000
 20
171.111000
 11
306.159000
 21
169.378949
  0
LINE
  8
1
 62
7
  6
CONTINUOUS
 10
306.159000
 20
169.378949
 11
308.159000
 21
169.378949
  0
LINE
  8
1
 62
7
  6
CONTINUOUS
 10
308.159000
 20
169.378949
 11
309.159000
 21
171.111000
  0
LINE
  8
1
 62
7
  6
CONTINUOUS
 10
309.159000
 20
171.111000
 11
308.159000
 21
172.843051
  0
LINE
  8
1
 62
7
  6
CONTINUOUS
 10
308.159000
 20
172.843051
 11
306.159000
 21
172.843051
  0
LINE
  8
1
 62
7
  6
CONTINUOUS
 10
306.159000
 20
172.843051
 11
305.159000
 21
171.111000
  0
CIRCLE
  8
1
 62
7
  6
CONTINUOUS
 10
307.159000
 20
171.111000
 40
3.350000
  0
CIRCLE
  8
1
 62
7
  6
CONTINUOUS
 10
307.159000
 20
251.111000
 40
5.000000
  0
LINE
  8
1
 62
7
  6
DASHDOT
 10
313.159000
 20
251.111000
 11
301.159000
 21
251.111000
  0
LINE
  8
1
 62
7
  6
DASHDOT
 10
307.159000
 20
245.111000
 11
307.159000
 21
257.111000
  0
CIRCLE
  8
1
 62
7
  6
CONTINUOUS
 10
307.159000
 20
251.111000
 40
4.150000
  0
LINE
  8
1
 62
7
  6
CONTINUOUS
 10
305.159000
 20
251.111000
 11
306.159000
 21
252.843051
  0
LINE
  8
1
 62
7
  6
CONTINUOUS
 10
306.159000
 20
252.843051
 11
308.159000
 21
252.843051
  0
LINE
  8
1
 62
7
  6
CONTINUOUS
 10
308.159000
 20
252.843051
 11
309.159000
 21
251.111000
  0
LINE
  8
1
 62
7
  6
CONTINUOUS
 10
309.159000
 20
251.111000
 11
308.159000
 21
249.378949
  0
LINE
  8
1
 62
7
  6
CONTINUOUS
 10
308.159000
 20
249.378949
 11
306.159000
 21
249.378949
  0
LINE
  8
1
 62
7
  6
CONTINUOUS
 10
306.159000
 20
249.378949
 11
305.159000
 21
251.111000
  0
CIRCLE
  8
1
 62
7
  6
CONTINUOUS
 10
307.159000
 20
251.111000
 40
3.350000
  0
CIRCLE
  8
1
 62
7
  6
CONTINUOUS
 10
457.159000
 20
171.111000
 40
5.000000
  0
LINE
  8
1
 62
7
  6
DASHDOT
 10
451.159000
 20
171.111000
 11
463.159000
 21
171.111000
  0
LINE
  8
1
 62
7
  6
DASHDOT
 10
457.159000
 20
177.111000
 11
457.159000
 21
165.111000
  0
CIRCLE
  8
1
 62
7
  6
CONTINUOUS
 10
457.159000
 20
171.111000
 40
4.150000
  0
LINE
  8
1
 62
7
  6
CONTINUOUS
 10
459.159000
 20
171.111000
 11
458.159000
 21
169.378949
  0
LINE
  8
1
 62
7
  6
CONTINUOUS
 10
458.159000
 20
169.378949
 11
456.159000
 21
169.378949
  0
LINE
  8
1
 62
7
  6
CONTINUOUS
 10
456.159000
 20
169.378949
 11
455.159000
 21
171.111000
  0
LINE
  8
1
 62
7
  6
CONTINUOUS
 10
455.159000
 20
171.111000
 11
456.159000
 21
172.843051
  0
LINE
  8
1
 62
7
  6
CONTINUOUS
 10
456.159000
 20
172.843051
 11
458.159000
 21
172.843051
  0
LINE
  8
1
 62
7
  6
CONTINUOUS
 10
458.159000
 20
172.843051
 11
459.159000
 21
171.111000
  0
CIRCLE
  8
1
 62
7
  6
CONTINUOUS
 10
457.159000
 20
171.111000
 40
3.350000
  0
CIRCLE
  8
1
 62
7
  6
CONTINUOUS
 10
457.159000
 20
251.111000
 40
5.000000
  0
LINE
  8
1
 62
7
  6
DASHDOT
 10
451.159000
 20
251.111000
 11
463.159000
 21
251.111000
  0
LINE
  8
1
 62
7
  6
DASHDOT
 10
457.159000
 20
245.111000
 11
457.159000
 21
257.111000
  0
CIRCLE
  8
1
 62
7
  6
CONTINUOUS
 10
457.159000
 20
251.111000
 40
4.150000
  0
LINE
  8
1
 62
7
  6
CONTINUOUS
 10
459.159000
 20
251.111000
 11
458.159000
 21
252.843051
  0
LINE
  8
1
 62
7
  6
CONTINUOUS
 10
458.159000
 20
252.843051
 11
456.159000
 21
252.843051
  0
LINE
  8
1
 62
7
  6
CONTINUOUS
 10
456.159000
 20
252.843051
 11
455.159000
 21
251.111000
  0
LINE
  8
1
 62
7
  6
CONTINUOUS
 10
455.159000
 20
251.111000
 11
456.159000
 21
249.378949
  0
LINE
  8
1
 62
7
  6
CONTINUOUS
 10
456.159000
 20
249.378949
 11
458.159000
 21
249.378949
  0
LINE
  8
1
 62
7
  6
CONTINUOUS
 10
458.159000
 20
249.378949
 11
459.159000
 21
251.111000
  0
CIRCLE
  8
1
 62
7
  6
CONTINUOUS
 10
457.159000
 20
251.111000
 40
3.350000
  0
ARC
  8
1
 62
7
  6
CONTINUOUS
 10
537.848134
 20
181.887293
 40
0.645314
 50
-29.077417
 51
-3.879736
  0
ARC
  8
1
 62
7
  6
CONTINUOUS
 10
536.387864
 20
182.547787
 40
2.246438
 50
-36.400718
 51
-25.697816
  0
ARC
  8
1
 62
7
  6
CONTINUOUS
 10
534.671124
 20
183.734278
 40
4.332787
 50
-42.365074
 51
-35.557367
  0
ARC
  8
1
 62
7
  6
CONTINUOUS
 10
533.852641
 20
184.446764
 40
5.417704
 50
-47.900429
 51
-42.099571
  0
ARC
  8
1
 62
7
  6
CONTINUOUS
 10
534.382411
 20
183.854227
 40
4.622886
 50
-54.228804
 51
-47.848756
  0
ARC
  8
1
 62
7
  6
CONTINUOUS
 10
535.570356
 20
182.212624
 40
2.596549
 50
-63.578912
 51
-54.322553
  0
ARC
  8
1
 62
7
  6
CONTINUOUS
 10
536.357503
 20
180.635880
 40
0.834253
 50
-83.235044
 51
-63.807804
  0
ARC
  8
1
 62
7
  6
CONTINUOUS
 10
538.252897
 20
183.154257
 40
0.303068
 50
-23.273620
 51
41.459322
  0
ARC
  8
1
 62
7
  6
CONTINUOUS
 10
536.837245
 20
183.423971
 40
1.738251
 50
-32.353750
 51
-12.947272
  0
ARC
  8
1
 62
7
  6
CONTINUOUS
 10
533.860174
 20
185.059444
 40
5.132740
 50
-39.206108
 51
-29.991231
  0
ARC
  8
1
 62
7
  6
CONTINUOUS
 10
531.277365
 20
187.051881
 40
8.394012
 50
-45.144030
 51
-38.600438
  0
ARC
  8
1
 62
7
  6
CONTINUOUS
 10
531.041451
 20
187.251936
 40
8.702263
 50
-51.283549
 51
-44.971983
  0
ARC
  8
1
 62
7
  6
CONTINUOUS
 10
532.875473
 20
184.967611
 40
5.772797
 50
-59.496995
 51
-51.305667
  0
ARC
  8
1
 62
7
  6
CONTINUOUS
 10
534.699031
 20
181.884890
 40
2.191119
 50
-75.033499
 51
-59.665479
  0
ARC
  8
1
 62
7
  6
CONTINUOUS
 10
535.162670
 20
180.155994
 40
0.401138
 50
-122.949802
 51
-75.235900
  0
LINE
  8
1
 62
7
  6
CONTINUOUS
 10
526.688404
 20
195.146534
 11
538.480024
 21
183.354914
  0
LINE
  8
1
 62
7
  6
CONTINUOUS
 10
534.944490
 20
179.819381
 11
526.688404
 21
188.075466
  0
LINE
  8
1
 62
7
  6
CONTINUOUS
 10
526.688404
 20
176.111000
 11
526.688404
 21
205.111000
  0
CIRCLE
  8
1
 62
7
  6
CONTINUOUS
 10
516.688404
 20
201.611000
 40
6.000000
  0
CIRCLE
  8
1
 62
7
  6
CONTINUOUS
 10
516.688404
 20
201.611000
 40
5.500000
  0
CIRCLE
  8
1
 62
7
  6
CONTINUOUS
 10
516.688404
 20
201.611000
 40
2.500000
  0
CIRCLE
  8
1
 62
7
  6
CONTINUOUS
 10
516.688404
 20
201.611000
 40
3.000000
  0
LINE
  8
1
 62
7
  6
CONTINUOUS
 10
544.688596
 20
182.111000
 11
545.688596
 21
181.111000
  0
LINE
  8
1
 62
7
  6
CONTINUOUS
 10
545.688596
 20
181.111000
 11
561.688596
 21
181.111000
  0
LINE
  8
1
 62
7
  6
CONTINUOUS
 10
562.688596
 20
182.111000
 11
561.688596
 21
181.111000
  0
LINE
  8
1
 62
7
  6
CONTINUOUS
 10
544.688596
 20
240.111000
 11
544.688596
 21
182.111000
  0
LINE
  8
1
 62
7
  6
CONTINUOUS
 10
545.688596
 20
241.111000
 11
544.688596
 21
240.111000
  0
LINE
  8
1
 62
7
  6
CONTINUOUS
 10
562.688596
 20
182.111000
 11
562.688596
 21
240.111000
  0
LINE
  8
1
 62
7
  6
CONTINUOUS
 10
561.688596
 20
241.111000
 11
545.688596
 21
241.111000
  0
LINE
  8
1
 62
7
  6
CONTINUOUS
 10
562.688596
 20
240.111000
 11
561.688596
 21
241.111000
  0
LINE
  8
1
 62
7
  6
CONTINUOUS
 10
561.688596
 20
181.111000
 11
561.688596
 21
241.111000
  0
LINE
  8
1
 62
7
  6
CONTINUOUS
 10
545.688596
 20
241.111000
 11
545.688596
 21
181.111000
  0
LINE
  8
1
 62
7
  6
CONTINUOUS
 10
560.688596
 20
181.111000
 11
560.688596
 21
241.111000
  0
LINE
  8
1
 62
7
  6
CONTINUOUS
 10
546.688596
 20
241.111000
 11
546.688596
 21
181.111000
  0
LINE
  8
1
 62
7
  6
CONTINUOUS
 10
549.955837
 20
230.245868
 11
546.688596
 21
230.245868
  0
LINE
  8
1
 62
7
  6
CONTINUOUS
 10
546.688596
 20
232.245868
 11
555.197216
 21
232.245868
  0
LINE
  8
1
 62
7
  6
CONTINUOUS
 10
560.438596
 20
234.245868
 11
546.688596
 21
234.245868
  0
LINE
  8
1
 62
7
  6
CONTINUOUS
 10
546.688596
 20
236.245868
 11
560.688596
 21
236.245868
  0
LINE
  8
1
 62
7
  6
CONTINUOUS
 10
560.688596
 20
238.245868
 11
546.688596
 21
238.245868
  0
LINE
  8
1
 62
7
  6
CONTINUOUS
 10
546.688596
 20
240.245868
 11
560.688596
 21
240.245868
  0
LINE
  8
1
 62
7
  6
CONTINUOUS
 10
558.688596
 20
241.111000
 11
558.688596
 21
233.578105
  0
LINE
  8
1
 62
7
  6
CONTINUOUS
 10
556.688596
 20
232.814947
 11
556.688596
 21
241.111000
  0
LINE
  8
1
 62
7
  6
CONTINUOUS
 10
554.688596
 20
241.111000
 11
554.688596
 21
232.051789
  0
LINE
  8
1
 62
7
  6
CONTINUOUS
 10
552.688596
 20
231.288632
 11
552.688596
 21
241.111000
  0
LINE
  8
1
 62
7
  6
CONTINUOUS
 10
550.688596
 20
241.111000
 11
550.688596
 21
230.525474
  0
LINE
  8
1
 62
7
  6
CONTINUOUS
 10
548.688596
 20
229.762316
 11
548.688596
 21
241.111000
  0
LINE
  8
1
 62
7
  6
CONTINUOUS
 10
557.421354
 20
191.976132
 11
560.688596
 21
191.976132
  0
LINE
  8
1
 62
7
  6
CONTINUOUS
 10
560.688596
 20
189.976132
 11
552.179975
 21
189.976132
  0
LINE
  8
1
 62
7
  6
CONTINUOUS
 10
546.938596
 20
187.976132
 11
560.688596
 21
187.976132
  0
LINE
  8
1
 62
7
  6
CONTINUOUS
 10
560.688596
 20
185.976132
 11
546.688596
 21
185.976132
  0
LINE
  8
1
 62
7
  6
CONTINUOUS
 10
546.688596
 20
183.976132
 11
560.688596
 21
183.976132
  0
LINE
  8
1
 62
7
  6
CONTINUOUS
 10
560.688596
 20
181.976132
 11
546.688596
 21
181.976132
  0
LINE
  8
1
 62
7
  6
CONTINUOUS
 10
548.688596
 20
181.111000
 11
548.688596
 21
188.643895
  0
LINE
  8
1
 62
7
  6
CONTINUOUS
 10
550.688596
 20
189.407053
 11
550.688596
 21
181.111000
  0
LINE
  8
1
 62
7
  6
CONTINUOUS
 10
552.688596
 20
181.111000
 11
552.688596
 21
190.170211
  0
LINE
  8
1
 62
7
  6
CONTINUOUS
 10
554.688596
 20
190.933368
 11
554.688596
 21
181.111000
  0
LINE
  8
1
 62
7
  6
CONTINUOUS
 10
556.688596
 20
181.111000
 11
556.688596
 21
191.696526
  0
LINE
  8
1
 62
7
  6
CONTINUOUS
 10
558.688596
 20
192.459684
 11
558.688596
 21
181.111000
  0
CIRCLE
  8
1
 62
7
  6
CONTINUOUS
 10
357.159000
 20
236.111000
 40
2.250000
  0
LINE
  8
1
 62
7
  6
DASHDOT
 10
351.909000
 20
236.111000
 11
362.409000
 21
236.111000
  0
LINE
  8
1
 62
7
  6
DASHDOT
 10
357.159000
 20
230.861000
 11
357.159000
 21
241.361000
  0
CIRCLE
  8
1
 62
7
  6
CONTINUOUS
 10
357.159000
 20
186.111000
 40
2.250000
  0
LINE
  8
1
 62
7
  6
DASHDOT
 10
357.159000
 20
180.861000
 11
357.159000
 21
191.361000
  0
LINE
  8
1
 62
7
  6
DASHDOT
 10
362.409000
 20
186.111000
 11
351.909000
 21
186.111000
  0
CIRCLE
  8
1
 62
7
  6
CONTINUOUS
 10
407.159000
 20
186.111000
 40
2.250000
  0
LINE
  8
1
 62
7
  6
DASHDOT
 10
412.409000
 20
186.111000
 11
401.909000
 21
186.111000
  0
LINE
  8
1
 62
7
  6
DASHDOT
 10
407.159000
 20
191.361000
 11
407.159000
 21
180.861000
  0
CIRCLE
  8
1
 62
7
  6
CONTINUOUS
 10
407.159000
 20
236.111000
 40
2.250000
  0
LINE
  8
1
 62
7
  6
DASHDOT
 10
407.159000
 20
241.361000
 11
407.159000
 21
230.861000
  0
LINE
  8
1
 62
7
  6
DASHDOT
 10
401.909000
 20
236.111000
 11
412.409000
 21
236.111000
  0
CIRCLE
  8
1
 62
7
  6
CONTINUOUS
 10
432.159000
 20
261.111000
 40
2.250000
  0
LINE
  8
1
 62
7
  6
DASHDOT
 10
432.159000
 20
266.361000
 11
432.159000
 21
255.861000
  0
LINE
  8
1
 62
7
  6
DASHDOT
 10
426.909000
 20
261.111000
 11
437.409000
 21
261.111000
  0
CIRCLE
  8
1
 62
7
  6
CONTINUOUS
 10
332.159000
 20
261.111000
 40
2.250000
  0
LINE
  8
1
 62
7
  6
DASHDOT
 10
326.909000
 20
261.111000
 11
337.409000
 21
261.111000
  0
LINE
  8
1
 62
7
  6
DASHDOT
 10
332.159000
 20
255.861000
 11
332.159000
 21
266.361000
  0
CIRCLE
  8
1
 62
7
  6
CONTINUOUS
 10
332.159000
 20
161.111000
 40
2.250000
  0
LINE
  8
1
 62
7
  6
DASHDOT
 10
332.159000
 20
155.861000
 11
332.159000
 21
166.361000
  0
LINE
  8
1
 62
7
  6
DASHDOT
 10
337.409000
 20
161.111000
 11
326.909000
 21
161.111000
  0
CIRCLE
  8
1
 62
7
  6
CONTINUOUS
 10
432.159000
 20
161.111000
 40
2.250000
  0
LINE
  8
1
 62
7
  6
DASHDOT
 10
437.409000
 20
161.111000
 11
426.909000
 21
161.111000
  0
LINE
  8
1
 62
7
  6
DASHDOT
 10
432.159000
 20
166.361000
 11
432.159000
 21
155.861000
  0
CIRCLE
  8
1
 62
7
  6
CONTINUOUS
 10
472.159000
 20
211.111000
 40
3.250000
  0
CIRCLE
  8
1
 62
7
  6
CONTINUOUS
 10
382.159000
 20
271.111000
 40
3.250000
  0
LINE
  8
1
 62
7
  6
DASHDOT
 10
472.159000
 20
204.861000
 11
472.159000
 21
217.361000
  0
LINE
  8
1
 62
7
  6
DASHDOT
 10
375.909000
 20
271.111000
 11
388.409000
 21
271.111000
  0
CIRCLE
  8
1
 62
7
  6
CONTINUOUS
 10
382.159000
 20
151.111000
 40
3.250000
  0
LINE
  8
1
 62
7
  6
DASHDOT
 10
375.909000
 20
151.111000
 11
388.409000
 21
151.111000
  0
CIRCLE
  8
1
 62
7
  6
CONTINUOUS
 10
292.159000
 20
211.111000
 40
3.250000
  0
LINE
  8
1
 62
7
  6
DASHDOT
 10
292.159000
 20
204.861000
 11
292.159000
 21
217.361000
  0
CIRCLE
  8
1
 62
7
  6
CONTINUOUS
 10
482.159000
 20
281.111000
 40
2.500000
  0
CIRCLE
  8
1
 62
7
  6
CONTINUOUS
 10
482.159000
 20
281.111000
 40
3.000000
  0
LINE
  8
1
 62
7
  6
DASHDOT
 10
476.159000
 20
281.111000
 11
488.159000
 21
281.111000
  0
LINE
  8
1
 62
7
  6
DASHDOT
 10
482.159000
 20
275.111000
 11
482.159000
 21
287.111000
  0
CIRCLE
  8
1
 62
7
  6
CONTINUOUS
 10
282.159000
 20
281.111000
 40
2.500000
  0
CIRCLE
  8
1
 62
7
  6
CONTINUOUS
 10
282.159000
 20
281.111000
 40
3.000000
  0
LINE
  8
1
 62
7
  6
DASHDOT
 10
288.159000
 20
281.111000
 11
276.159000
 21
281.111000
  0
LINE
  8
1
 62
7
  6
DASHDOT
 10
282.159000
 20
275.111000
 11
282.159000
 21
287.111000
  0
CIRCLE
  8
1
 62
7
  6
CONTINUOUS
 10
482.159000
 20
141.111000
 40
2.500000
  0
CIRCLE
  8
1
 62
7
  6
CONTINUOUS
 10
482.159000
 20
141.111000
 40
3.000000
  0
LINE
  8
1
 62
7
  6
DASHDOT
 10
476.159000
 20
141.111000
 11
488.159000
 21
141.111000
  0
LINE
  8
1
 62
7
  6
DASHDOT
 10
482.159000
 20
147.111000
 11
482.159000
 21
135.111000
  0
CIRCLE
  8
1
 62
7
  6
CONTINUOUS
 10
282.159000
 20
141.111000
 40
2.500000
  0
CIRCLE
  8
1
 62
7
  6
CONTINUOUS
 10
282.159000
 20
141.111000
 40
3.000000
  0
LINE
  8
1
 62
7
  6
DASHDOT
 10
288.159000
 20
141.111000
 11
276.159000
 21
141.111000
  0
LINE
  8
1
 62
7
  6
DASHDOT
 10
282.159000
 20
147.111000
 11
282.159000
 21
135.111000
  0
CIRCLE
  8
1
 62
7
  6
CONTINUOUS
 10
247.629596
 20
267.611000
 40
2.000000
  0
CIRCLE
  8
1
 62
7
  6
CONTINUOUS
 10
247.629596
 20
267.611000
 40
1.650000
  0
LINE
  8
1
 62
7
  6
DASHDOT
 10
244.629596
 20
267.611000
 11
250.629596
 21
267.611000
  0
CIRCLE
  8
1
 62
7
  6
CONTINUOUS
 10
247.629596
 20
267.611000
 40
1.500000
  0
LINE
  8
1
 62
7
  6
CONTINUOUS
 10
248.629596
 20
268.211000
 11
247.629596
 21
268.811000
  0
LINE
  8
1
 62
7
  6
CONTINUOUS
 10
247.629596
 20
268.811000
 11
246.629596
 21
268.211000
  0
LINE
  8
1
 62
7
  6
CONTINUOUS
 10
246.629596
 20
268.211000
 11
246.629596
 21
267.011000
  0
LINE
  8
1
 62
7
  6
CONTINUOUS
 10
246.629596
 20
267.011000
 11
247.629596
 21
266.411000
  0
LINE
  8
1
 62
7
  6
CONTINUOUS
 10
247.629596
 20
266.411000
 11
248.629596
 21
267.011000
  0
LINE
  8
1
 62
7
  6
CONTINUOUS
 10
248.629596
 20
267.011000
 11
248.629596
 21
268.211000
  0
CIRCLE
  8
1
 62
7
  6
CONTINUOUS
 10
247.629596
 20
154.611000
 40
2.000000
  0
CIRCLE
  8
1
 62
7
  6
CONTINUOUS
 10
247.629596
 20
154.611000
 40
1.650000
  0
LINE
  8
1
 62
7
  6
DASHDOT
 10
244.629596
 20
154.611000
 11
250.629596
 21
154.611000
  0
CIRCLE
  8
1
 62
7
  6
CONTINUOUS
 10
247.629596
 20
154.611000
 40
1.500000
  0
LINE
  8
1
 62
7
  6
CONTINUOUS
 10
248.629596
 20
154.011000
 11
247.629596
 21
153.411000
  0
LINE
  8
1
 62
7
  6
CONTINUOUS
 10
247.629596
 20
153.411000
 11
246.629596
 21
154.011000
  0
LINE
  8
1
 62
7
  6
CONTINUOUS
 10
246.629596
 20
154.011000
 11
246.629596
 21
155.211000
  0
LINE
  8
1
 62
7
  6
CONTINUOUS
 10
246.629596
 20
155.211000
 11
247.629596
 21
155.811000
  0
LINE
  8
1
 62
7
  6
CONTINUOUS
 10
247.629596
 20
155.811000
 11
248.629596
 21
155.211000
  0
LINE
  8
1
 62
7
  6
CONTINUOUS
 10
248.629596
 20
155.211000
 11
248.629596
 21
154.011000
  0
CIRCLE
  8
1
 62
7
  6
CONTINUOUS
 10
247.629596
 20
236.111000
 40
2.000000
  0
CIRCLE
  8
1
 62
7
  6
CONTINUOUS
 10
247.629596
 20
236.111000
 40
1.650000
  0
CIRCLE
  8
1
 62
7
  6
CONTINUOUS
 10
247.629596
 20
236.111000
 40
1.500000
  0
LINE
  8
1
 62
7
  6
CONTINUOUS
 10
248.629596
 20
235.511000
 11
247.629596
 21
234.911000
  0
LINE
  8
1
 62
7
  6
CONTINUOUS
 10
247.629596
 20
234.911000
 11
246.629596
 21
235.511000
  0
LINE
  8
1
 62
7
  6
CONTINUOUS
 10
246.629596
 20
235.511000
 11
246.629596
 21
236.711000
  0
LINE
  8
1
 62
7
  6
CONTINUOUS
 10
246.629596
 20
236.711000
 11
247.629596
 21
237.311000
  0
LINE
  8
1
 62
7
  6
CONTINUOUS
 10
247.629596
 20
237.311000
 11
248.629596
 21
236.711000
  0
LINE
  8
1
 62
7
  6
CONTINUOUS
 10
248.629596
 20
236.711000
 11
248.629596
 21
235.511000
  0
CIRCLE
  8
1
 62
7
  6
CONTINUOUS
 10
247.629596
 20
186.111000
 40
2.000000
  0
CIRCLE
  8
1
 62
7
  6
CONTINUOUS
 10
247.629596
 20
186.111000
 40
1.650000
  0
CIRCLE
  8
1
 62
7
  6
CONTINUOUS
 10
247.629596
 20
186.111000
 40
1.500000
  0
LINE
  8
1
 62
7
  6
CONTINUOUS
 10
248.629596
 20
186.711000
 11
247.629596
 21
187.311000
  0
LINE
  8
1
 62
7
  6
CONTINUOUS
 10
247.629596
 20
187.311000
 11
246.629596
 21
186.711000
  0
LINE
  8
1
 62
7
  6
CONTINUOUS
 10
246.629596
 20
186.711000
 11
246.629596
 21
185.511000
  0
LINE
  8
1
 62
7
  6
CONTINUOUS
 10
246.629596
 20
185.511000
 11
247.629596
 21
184.911000
  0
LINE
  8
1
 62
7
  6
CONTINUOUS
 10
247.629596
 20
184.911000
 11
248.629596
 21
185.511000
  0
LINE
  8
1
 62
7
  6
CONTINUOUS
 10
248.629596
 20
185.511000
 11
248.629596
 21
186.711000
  0
CIRCLE
  8
1
 62
7
  6
CONTINUOUS
 10
516.688404
 20
267.611000
 40
2.000000
  0
CIRCLE
  8
1
 62
7
  6
CONTINUOUS
 10
516.688404
 20
267.611000
 40
1.650000
  0
LINE
  8
1
 62
7
  6
DASHDOT
 10
519.688404
 20
267.611000
 11
513.688404
 21
267.611000
  0
CIRCLE
  8
1
 62
7
  6
CONTINUOUS
 10
516.688404
 20
267.611000
 40
1.500000
  0
LINE
  8
1
 62
7
  6
CONTINUOUS
 10
515.688404
 20
268.211000
 11
516.688404
 21
268.811000
  0
LINE
  8
1
 62
7
  6
CONTINUOUS
 10
516.688404
 20
268.811000
 11
517.688404
 21
268.211000
  0
LINE
  8
1
 62
7
  6
CONTINUOUS
 10
517.688404
 20
268.211000
 11
517.688404
 21
267.011000
  0
LINE
  8
1
 62
7
  6
CONTINUOUS
 10
517.688404
 20
267.011000
 11
516.688404
 21
266.411000
  0
LINE
  8
1
 62
7
  6
CONTINUOUS
 10
516.688404
 20
266.411000
 11
515.688404
 21
267.011000
  0
LINE
  8
1
 62
7
  6
CONTINUOUS
 10
515.688404
 20
267.011000
 11
515.688404
 21
268.211000
  0
CIRCLE
  8
1
 62
7
  6
CONTINUOUS
 10
516.688404
 20
154.611000
 40
2.000000
  0
CIRCLE
  8
1
 62
7
  6
CONTINUOUS
 10
516.688404
 20
154.611000
 40
1.650000
  0
LINE
  8
1
 62
7
  6
DASHDOT
 10
519.688404
 20
154.611000
 11
513.688404
 21
154.611000
  0
CIRCLE
  8
1
 62
7
  6
CONTINUOUS
 10
516.688404
 20
154.611000
 40
1.500000
  0
LINE
  8
1
 62
7
  6
CONTINUOUS
 10
515.688404
 20
154.011000
 11
516.688404
 21
153.411000
  0
LINE
  8
1
 62
7
  6
CONTINUOUS
 10
516.688404
 20
153.411000
 11
517.688404
 21
154.011000
  0
LINE
  8
1
 62
7
  6
CONTINUOUS
 10
517.688404
 20
154.011000
 11
517.688404
 21
155.211000
  0
LINE
  8
1
 62
7
  6
CONTINUOUS
 10
517.688404
 20
155.211000
 11
516.688404
 21
155.811000
  0
LINE
  8
1
 62
7
  6
CONTINUOUS
 10
516.688404
 20
155.811000
 11
515.688404
 21
155.211000
  0
LINE
  8
1
 62
7
  6
CONTINUOUS
 10
515.688404
 20
155.211000
 11
515.688404
 21
154.011000
  0
CIRCLE
  8
1
 62
7
  6
CONTINUOUS
 10
516.688404
 20
171.111000
 40
2.000000
  0
CIRCLE
  8
1
 62
7
  6
CONTINUOUS
 10
516.688404
 20
171.111000
 40
1.650000
  0
CIRCLE
  8
1
 62
7
  6
CONTINUOUS
 10
516.688404
 20
171.111000
 40
1.500000
  0
LINE
  8
1
 62
7
  6
CONTINUOUS
 10
517.688404
 20
171.711000
 11
516.688404
 21
172.311000
  0
LINE
  8
1
 62
7
  6
CONTINUOUS
 10
516.688404
 20
172.311000
 11
515.688404
 21
171.711000
  0
LINE
  8
1
 62
7
  6
CONTINUOUS
 10
515.688404
 20
171.711000
 11
515.688404
 21
170.511000
  0
LINE
  8
1
 62
7
  6
CONTINUOUS
 10
515.688404
 20
170.511000
 11
516.688404
 21
169.911000
  0
LINE
  8
1
 62
7
  6
CONTINUOUS
 10
516.688404
 20
169.911000
 11
517.688404
 21
170.511000
  0
LINE
  8
1
 62
7
  6
CONTINUOUS
 10
517.688404
 20
170.511000
 11
517.688404
 21
171.711000
  0
CIRCLE
  8
1
 62
7
  6
CONTINUOUS
 10
516.688404
 20
251.111000
 40
2.000000
  0
CIRCLE
  8
1
 62
7
  6
CONTINUOUS
 10
516.688404
 20
251.111000
 40
1.650000
  0
CIRCLE
  8
1
 62
7
  6
CONTINUOUS
 10
516.688404
 20
251.111000
 40
1.500000
  0
LINE
  8
1
 62
7
  6
CONTINUOUS
 10
517.688404
 20
251.711000
 11
516.688404
 21
252.311000
  0
LINE
  8
1
 62
7
  6
CONTINUOUS
 10
516.688404
 20
252.311000
 11
515.688404
 21
251.711000
  0
LINE
  8
1
 62
7
  6
CONTINUOUS
 10
515.688404
 20
251.711000
 11
515.688404
 21
250.511000
  0
LINE
  8
1
 62
7
  6
CONTINUOUS
 10
515.688404
 20
250.511000
 11
516.688404
 21
249.911000
  0
LINE
  8
1
 62
7
  6
CONTINUOUS
 10
516.688404
 20
249.911000
 11
517.688404
 21
250.511000
  0
LINE
  8
1
 62
7
  6
CONTINUOUS
 10
517.688404
 20
250.511000
 11
517.688404
 21
251.711000
  0
TEXT
  8
1
 62
7
  6
CONTINUOUS
 10
1015.970000
 20
111.030000
 40
10.000000
 41
0.694444
  1
精密ラボジャッキ
  7
KANJI
 50
0.000000
 51
0.000000
  0
ENDSEC
  0
EOF
