  0
SECTION
  2
HEADER
  9
$ACADVER
  1
AC1004
  9
$INSBASE
 10
0.000000
 20
0.000000
  9
$EXTMIN
 10
0.000000
 20
0.000000
  9
$EXTMAX
 10
1189.000000
 20
841.000000
  9
$LIMMIN
 10
0.000000
 20
0.000000
  9
$LIMMAX
 10
1189.000000
 20
841.000000
  9
$VIEWCTR
 10
594.500000
 20
420.500000
  9
$VIEWSIZE
 40
841.000000
  9
$PEXTMIN
 10
0.000000
 20
0.000000
 30
0.000000
  9
$PEXTMAX
 10
1189.000000
 20
841.000000
 30
0.000000
  9
$SNAPMODE
 70
     0
  9
$SNAPUNIT
 10
1.000000
 20
1.000000
  9
$SNAPBASE
 10
0.000000
 20
0.000000
  9
$SNAPANG
 50
0.000000
  9
$SNAPISOPAIR
 70
     0
  9
$SNAPSTYLE
 70
     0
  9
$GRIDMODE
 70
     0
  9
$GRIDUNIT
 10
0.000000
 20
0.000000
  9
$ORTHOMODE
 70
     0
  9
$REGENMODE
 70
     1
  9
$FILLMODE
 70
     1
  9
$QTEXTMODE
 70
     0
  9
$DRAGMODE
 70
     2
  9
$LTSCALE
 40
0.250000
  9
$OSMODE
 70
     0
  9
$ATTMODE
 70
     1
  9
$TEXTSIZE
 40
3.500000
  9
$TRACEWID
 40
0.050000
  9
$TEXTSTYLE
  7
STANDARD
  9
$CLAYER
  8
0
  9
$CELTYPE
  6
BYLAYER
  9
$CECOLOR
 62
   256
  9
$DIMSCALE
 40
1.000000
  9
$DIMASZ
 40
1.000000
  9
$DIMEXO
 40
0.000000
  9
$DIMDLI
 40
0.500000
  9
$DIMRND
 40
0.000000
  9
$DIMDLE
 40
0.000000
  9
$DIMEXE
 40
0.000000
  9
$DIMTP
 40
0.000000
  9
$DIMTM
 40
0.000000
  9
$DIMTXT
 40
3.500000
  9
$DIMCEN
 40
0.000000
  9
$DIMTSZ
 40
0.000000
  9
$DIMTOL
 70
     0
  9
$DIMLIM
 70
     0
  9
$DIMTIH
 70
     1
  9
$DIMTOH
 70
     1
  9
$DIMSE1
 70
     0
  9
$DIMSE2
 70
     0
  9
$DIMTAD
 70
     0
  9
$DIMZIN
 70
     0
  9
$DIMBLK
  1

  9
$DIMASO
 70
     0
  9
$DIMSHO
 70
     0
  9
$DIMPOST
  1

  9
$DIMAPOST
  1

  9
$DIMALT
 70
     0
  9
$DIMALTD
 70
     0
  9
$DIMALTF
 40
25.400000
  9
$DIMLFAC
 40
1.000000
  9
$DIMTOFL
 70
     0
  9
$DIMTVP
 40
0.000000
  9
$DIMTIX
 70
     0
  9
$DIMSOXD
 70
     0
  9
$DIMSAH
 70
     0
  9
$DIMBLKL
  1

  9
$DIMBLKR
  1

  9
$LUNITS
 70
     2
  9
$LUPREC
 70
     2
  9
$AXISMODE
 70
     0
  9
$AXISUNIT
 10
1.000000
 20
1.000000
  9
$SKETCHINC
 40
0.000000
  9
$FILLETRAD
 40
0.000000
  9
$AUNITS
 70
     1
  9
$AUPREC
 70
     2
  9
$MENU
  1
ACAD
  9
$ELEVATION
 40
0.000000
  9
$THICKNESS
 40
0.000000
  9
$VIEWDIR
 10
0.000000
 20
0.000000
 30
1.000000
  9
$LIMCHECK
 70
     1
  9
$BLIPMODE
 70
     1
  9
$CHAMFERA
 40
0.000000
  9
$CHAMFERB
 40
0.000000
  9
$FASTZOOM
 70
     1
  9
$SKPOLY
 70
     0
  9
$TDCREATE
 40
0.000000
  9
$TDUPDATE
 40
0.000000
  9
$TDINDWG
 40
0.000000
  9
$TDUSRTIMER
 40
0.000000
  9
$USRTIMER
 70
     1
  9
$ANGBASE
 50
0.000000
  9
$ANGDIR
 70
     0
  9
$PDMODE
 70
     0
  9
$PDSIZE
 40
0.000000
  9
$PLINEWID
 40
0.000000
  9
$COORDS
 70
     2
  9
$USERI1
 70
     0
  9
$USERI2
 70
     0
  9
$USERI3
 70
     0
  9
$USERI4
 70
     0
  9
$USERI5
 70
     0
  9
$USERR1
 40
0.000000
  9
$USERR2
 40
0.000000
  9
$USERR3
 40
0.000000
  9
$USERR4
 40
0.000000
  9
$USERR5
 40
0.000000
  0
ENDSEC
  0
SECTION
  2
TABLES
  0
TABLE
  2
LTYPE
 70
     5
  0
LTYPE
  2
CONTINUOUS
 70
    64
  3
Solid line
 72
    65
 73
     0
 40
0.0
  0
LTYPE
  2
HIDDEN
 70
    64
  3
------------------------
 72
    65
 73
     2
 40
12.6
 49
8.4
 49
-4.2
  0
LTYPE
  2
DOT
 70
    64
  3
････････････････････････
 72
    65
 73
     2
 40
8.0
 49
6.0
 49
-2.0
  0
LTYPE
  2
DASHDOT
 70
    64
  3
--･--･--･--･--･--･--･--
 72
    65
 73
     4
 40
50.5
 49
30.0
 49
-9.0
 49
2.5
 49
-9.0
  0
LTYPE
  2
DIVIDE
 70
    64
  3
--･･--･･--･･--･･--･･--
 72
    65
 73
     6
 40
58.0
 49
30.0
 49
-9.0
 49
2.5
 49
-5.0
 49
2.5
 49
-9.0
  0
LTYPE
  2
ACAD_ISO06W100
 70
    64
  3
____ ... ____ ... ____
 72
    65
 73
     8
 40
37.5
 49
24.0
 49
-3.0
 49
0.5
 49
-3.0
 49
0.5
 49
-3.0
 49
0.5
 49
-3.0
  0
LTYPE
  2
ACAD_ISO14W100
 70
    64
  3
__ . . . __ . . . __ . . . 
 72
    65
 73
     8
 40
25.5
 49
12.0
 49
-3.0
 49
0.5
 49
-3.0
 49
0.5
 49
-3.0
 49
0.5
 49
-3.0
  0
ENDTAB
  0
TABLE
  2
LAYER
 70
1
  0
LAYER
  2
1
 70
64
 62
7
  6
CONTINUOUS
  0
ENDTAB
  0
TABLE
  2
STYLE
 70
     2
  0
STYLE
  2
STANDARD
 70
    64
 40
0.0
 41
1.0
 50
0.0
 71
     0
 42
0.2
  3
TXT
  4

  0
STYLE
  2
KANJI
 70
    64
 40
0.0
 41
1.0
 50
0.0
 71
     0
 42
0.2
  3
TXT
  4
BIGFONT
  0
ENDTAB
  0
TABLE
  2
VIEW
 70
     0
  0
ENDTAB
  0
ENDSEC
  0
SECTION
  2
BLOCKS
  0
ENDSEC
  0
SECTION
  2
ENTITIES
  0
LINE
  8
1
 62
7
  6
CONTINUOUS
 10
897.110000
 20
149.990000
 11
1146.150000
 21
149.990000
  0
LINE
  8
1
 62
7
  6
CONTINUOUS
 10
897.110000
 20
149.990000
 11
897.110000
 21
48.110000
  0
LINE
  8
1
 62
7
  6
CONTINUOUS
 10
897.110000
 20
121.690000
 11
976.350000
 21
121.690000
  0
LINE
  8
1
 62
7
  6
CONTINUOUS
 10
897.110000
 20
82.070000
 11
1146.150000
 21
82.070000
  0
TEXT
  8
1
 62
7
  6
CONTINUOUS
 10
1090.965000
 20
55.185000
 40
8.490000
 41
1.000000
  1
1/1
  7
KANJI
 50
0.000000
 51
0.000000
  0
TEXT
  8
1
 62
7
  6
CONTINUOUS
 10
1127.755000
 20
55.185000
 40
8.490000
 41
1.000000
  1
-
  7
KANJI
 50
0.000000
 51
0.000000
  0
TEXT
  8
1
 62
7
  6
CONTINUOUS
 10
932.485000
 20
55.185000
 40
8.490000
 41
0.578703
  1
－
  7
KANJI
 50
0.000000
 51
0.000000
  0
TEXT
  8
1
 62
7
  6
CONTINUOUS
 10
937.797613
 20
125.935000
 40
8.490000
 41
0.578703
  1
－
  7
KANJI
 50
0.000000
 51
0.000000
  0
LINE
  8
1
 62
7
  6
CONTINUOUS
 10
0.000000
 20
0.000000
 11
28.300000
 21
0.000000
  0
LINE
  8
1
 62
7
  6
CONTINUOUS
 10
0.000000
 20
0.000000
 11
0.000000
 21
28.300000
  0
LINE
  8
1
 62
7
  6
CONTINUOUS
 10
42.450000
 20
803.720000
 11
1146.150000
 21
803.720000
  0
LINE
  8
1
 62
7
  6
CONTINUOUS
 10
42.450000
 20
48.110000
 11
1146.150000
 21
48.110000
  0
LINE
  8
1
 62
7
  6
CONTINUOUS
 10
42.450000
 20
48.110000
 11
42.450000
 21
803.720000
  0
LINE
  8
1
 62
7
  6
CONTINUOUS
 10
42.450000
 20
48.110000
 11
251.870000
 21
48.110000
  0
LINE
  8
1
 62
7
  6
CONTINUOUS
 10
42.450000
 20
48.110000
 11
42.450000
 21
172.064000
  0
TEXT
  8
1
 62
7
  6
CONTINUOUS
 10
129.897000
 20
35.092000
 40
9.056000
 41
1.000000
  1
1
  7
KANJI
 50
0.000000
 51
0.000000
  0
LINE
  8
1
 62
7
  6
CONTINUOUS
 10
226.400000
 20
48.110000
 11
226.400000
 21
39.620000
  0
TEXT
  8
1
 62
7
  6
CONTINUOUS
 10
30.847000
 20
106.549500
 40
9.056000
 41
1.000000
  1
F
  7
KANJI
 50
0.000000
 51
0.000000
  0
LINE
  8
1
 62
7
  6
CONTINUOUS
 10
42.450000
 20
174.045000
 11
33.960000
 21
174.045000
  0
TEXT
  8
1
 62
7
  6
CONTINUOUS
 10
30.847000
 20
232.484500
 40
9.056000
 41
1.000000
  1
E
  7
KANJI
 50
0.000000
 51
0.000000
  0
LINE
  8
1
 62
7
  6
CONTINUOUS
 10
42.450000
 20
299.980000
 11
33.960000
 21
299.980000
  0
TEXT
  8
1
 62
7
  6
CONTINUOUS
 10
313.847000
 20
35.092000
 40
9.056000
 41
1.000000
  1
2
  7
KANJI
 50
0.000000
 51
0.000000
  0
LINE
  8
1
 62
7
  6
CONTINUOUS
 10
410.350000
 20
48.110000
 11
410.350000
 21
39.620000
  0
TEXT
  8
1
 62
7
  6
CONTINUOUS
 10
497.797000
 20
35.092000
 40
9.056000
 41
1.000000
  1
3
  7
KANJI
 50
0.000000
 51
0.000000
  0
TEXT
  8
1
 62
7
  6
CONTINUOUS
 10
30.847000
 20
610.289500
 40
9.056000
 41
1.000000
  1
B
  7
KANJI
 50
0.000000
 51
0.000000
  0
TEXT
  8
1
 62
7
  6
CONTINUOUS
 10
30.847000
 20
358.419500
 40
9.056000
 41
1.000000
  1
D
  7
KANJI
 50
0.000000
 51
0.000000
  0
LINE
  8
1
 62
7
  6
CONTINUOUS
 10
33.960000
 20
425.915000
 11
50.940000
 21
425.915000
  0
LINE
  8
1
 62
7
  6
CONTINUOUS
 10
50.940000
 20
425.915000
 11
33.960000
 21
425.915000
  0
TEXT
  8
1
 62
7
  6
CONTINUOUS
 10
30.847000
 20
484.354500
 40
9.056000
 41
1.000000
  1
C
  7
KANJI
 50
0.000000
 51
0.000000
  0
LINE
  8
1
 62
7
  6
CONTINUOUS
 10
42.450000
 20
551.850000
 11
33.960000
 21
551.850000
  0
LINE
  8
1
 62
7
  6
CONTINUOUS
 10
42.450000
 20
677.785000
 11
33.960000
 21
677.785000
  0
TEXT
  8
1
 62
7
  6
CONTINUOUS
 10
30.847000
 20
736.224500
 40
9.056000
 41
1.000000
  1
A
  7
KANJI
 50
0.000000
 51
0.000000
  0
TEXT
  8
1
 62
7
  6
CONTINUOUS
 10
129.897000
 20
807.682000
 40
9.056000
 41
1.000000
  1
1
  7
KANJI
 50
0.000000
 51
0.000000
  0
LINE
  8
1
 62
7
  6
CONTINUOUS
 10
226.400000
 20
803.720000
 11
226.400000
 21
812.210000
  0
TEXT
  8
1
 62
7
  6
CONTINUOUS
 10
313.847000
 20
807.682000
 40
9.056000
 41
1.000000
  1
2
  7
KANJI
 50
0.000000
 51
0.000000
  0
LINE
  8
1
 62
7
  6
CONTINUOUS
 10
410.350000
 20
803.720000
 11
410.350000
 21
812.210000
  0
TEXT
  8
1
 62
7
  6
CONTINUOUS
 10
497.797000
 20
807.682000
 40
9.056000
 41
1.000000
  1
3
  7
KANJI
 50
0.000000
 51
0.000000
  0
LINE
  8
1
 62
7
  6
CONTINUOUS
 10
594.300000
 20
795.230000
 11
594.300000
 21
812.210000
  0
LINE
  8
1
 62
7
  6
CONTINUOUS
 10
1146.150000
 20
48.110000
 11
1146.150000
 21
803.720000
  0
TEXT
  8
1
 62
7
  6
CONTINUOUS
 10
1094.191200
 20
72.448000
 40
7.924000
 41
0.600000
  1
Page
  7
KANJI
 50
0.000000
 51
0.000000
  0
LINE
  8
1
 62
7
  6
CONTINUOUS
 10
897.110000
 20
70.750000
 11
1146.150000
 21
70.750000
  0
LINE
  8
1
 62
7
  6
CONTINUOUS
 10
1010.310000
 20
104.710000
 11
1146.150000
 21
104.710000
  0
LINE
  8
1
 62
7
  6
CONTINUOUS
 10
976.350000
 20
127.350000
 11
1146.150000
 21
127.350000
  0
LINE
  8
1
 62
7
  6
CONTINUOUS
 10
1089.550000
 20
48.110000
 11
1089.550000
 21
82.070000
  0
LINE
  8
1
 62
7
  6
CONTINUOUS
 10
976.350000
 20
48.110000
 11
976.350000
 21
149.990000
  0
TEXT
  8
1
 62
7
  6
CONTINUOUS
 10
681.747000
 20
35.092000
 40
9.056000
 41
1.000000
  1
4
  7
KANJI
 50
0.000000
 51
0.000000
  0
LINE
  8
1
 62
7
  6
CONTINUOUS
 10
778.250000
 20
48.110000
 11
778.250000
 21
39.620000
  0
TEXT
  8
1
 62
7
  6
CONTINUOUS
 10
865.697000
 20
35.092000
 40
9.056000
 41
1.000000
  1
5
  7
KANJI
 50
0.000000
 51
0.000000
  0
LINE
  8
1
 62
7
  6
CONTINUOUS
 10
962.200000
 20
48.110000
 11
962.200000
 21
39.620000
  0
TEXT
  8
1
 62
7
  6
CONTINUOUS
 10
1049.647000
 20
35.092000
 40
9.056000
 41
1.000000
  1
6
  7
KANJI
 50
0.000000
 51
0.000000
  0
TEXT
  8
1
 62
7
  6
CONTINUOUS
 10
976.689600
 20
134.708000
 40
7.924000
 41
0.600000
  1
PRODUCT
  7
KANJI
 50
0.000000
 51
0.000000
  0
TEXT
  8
1
 62
7
  6
CONTINUOUS
 10
979.746000
 20
100.182000
 40
9.056000
 41
0.600000
  1
TITLE
  7
KANJI
 50
0.000000
 51
0.000000
  0
TEXT
  8
1
 62
7
  6
CONTINUOUS
 10
910.580800
 20
72.448000
 40
7.924000
 41
0.752539
  1
Product No.
  7
KANJI
 50
0.000000
 51
0.000000
  0
LINE
  8
1
 62
7
  6
DASHDOT
 10
911.260000
 20
97.635000
 11
933.900000
 21
97.635000
  0
CIRCLE
  8
1
 62
7
  6
CONTINUOUS
 10
922.580000
 20
97.635000
 40
5.660000
  0
CIRCLE
  8
1
 62
7
  6
CONTINUOUS
 10
922.580000
 20
97.635000
 40
8.490000
  0
LINE
  8
1
 62
7
  6
DASHDOT
 10
922.580000
 20
86.315000
 11
922.580000
 21
108.955000
  0
TEXT
  8
1
 62
7
  6
CONTINUOUS
 10
899.940000
 20
112.068000
 40
6.792000
 41
0.600000
  1
PROJECTION
  7
KANJI
 50
0.000000
 51
0.000000
  0
LINE
  8
1
 62
7
  6
CONTINUOUS
 10
945.220000
 20
91.975000
 11
945.220000
 21
103.295000
  0
LINE
  8
1
 62
7
  6
CONTINUOUS
 10
945.220000
 20
103.295000
 11
959.370000
 21
106.125000
  0
LINE
  8
1
 62
7
  6
DASHDOT
 10
942.390000
 20
97.635000
 11
962.200000
 21
97.635000
  0
LINE
  8
1
 62
7
  6
CONTINUOUS
 10
959.370000
 20
89.145000
 11
959.370000
 21
106.125000
  0
LINE
  8
1
 62
7
  6
CONTINUOUS
 10
945.220000
 20
91.975000
 11
959.370000
 21
89.145000
  0
TEXT
  8
1
 62
7
  6
CONTINUOUS
 10
899.940000
 20
140.368000
 40
6.792000
 41
0.600000
  1
QUANTITY
  7
KANJI
 50
0.000000
 51
0.000000
  0
LINE
  8
1
 62
7
  6
CONTINUOUS
 10
1010.310000
 20
82.070000
 11
1010.310000
 21
149.990000
  0
TEXT
  8
1
 62
7
  6
CONTINUOUS
 10
1006.800800
 20
72.448000
 40
7.924000
 41
0.752539
  1
Drawing No.
  7
KANJI
 50
0.000000
 51
0.000000
  0
LINE
  8
1
 62
7
  6
CONTINUOUS
 10
1117.850000
 20
48.110000
 11
1117.850000
 21
82.070000
  0
TEXT
  8
1
 62
7
  6
CONTINUOUS
 10
1148.697000
 20
106.549500
 40
9.056000
 41
1.000000
  1
F
  7
KANJI
 50
0.000000
 51
0.000000
  0
TEXT
  8
1
 62
7
  6
CONTINUOUS
 10
1122.491200
 20
72.448000
 40
7.924000
 41
0.823046
  1
Rev.
  7
KANJI
 50
0.000000
 51
0.000000
  0
LINE
  8
1
 62
7
  6
CONTINUOUS
 10
1146.150000
 20
174.045000
 11
1154.640000
 21
174.045000
  0
TEXT
  8
1
 62
7
  6
CONTINUOUS
 10
1148.697000
 20
232.484500
 40
9.056000
 41
1.000000
  1
E
  7
KANJI
 50
0.000000
 51
0.000000
  0
LINE
  8
1
 62
7
  6
CONTINUOUS
 10
1146.150000
 20
299.980000
 11
1154.640000
 21
299.980000
  0
TEXT
  8
1
 62
7
  6
CONTINUOUS
 10
681.747000
 20
807.682000
 40
9.056000
 41
1.000000
  1
4
  7
KANJI
 50
0.000000
 51
0.000000
  0
LINE
  8
1
 62
7
  6
CONTINUOUS
 10
778.250000
 20
803.720000
 11
778.250000
 21
812.210000
  0
TEXT
  8
1
 62
7
  6
CONTINUOUS
 10
865.697000
 20
807.682000
 40
9.056000
 41
1.000000
  1
5
  7
KANJI
 50
0.000000
 51
0.000000
  0
LINE
  8
1
 62
7
  6
CONTINUOUS
 10
962.200000
 20
803.720000
 11
962.200000
 21
812.210000
  0
TEXT
  8
1
 62
7
  6
CONTINUOUS
 10
1049.647000
 20
807.682000
 40
9.056000
 41
1.000000
  1
6
  7
KANJI
 50
0.000000
 51
0.000000
  0
TEXT
  8
1
 62
7
  6
CONTINUOUS
 10
1148.697000
 20
610.289500
 40
9.056000
 41
1.000000
  1
B
  7
KANJI
 50
0.000000
 51
0.000000
  0
TEXT
  8
1
 62
7
  6
CONTINUOUS
 10
1148.697000
 20
358.419500
 40
9.056000
 41
1.000000
  1
D
  7
KANJI
 50
0.000000
 51
0.000000
  0
LINE
  8
1
 62
7
  6
CONTINUOUS
 10
1137.660000
 20
425.915000
 11
1154.640000
 21
425.915000
  0
TEXT
  8
1
 62
7
  6
CONTINUOUS
 10
1148.697000
 20
484.354500
 40
9.056000
 41
1.000000
  1
C
  7
KANJI
 50
0.000000
 51
0.000000
  0
LINE
  8
1
 62
7
  6
CONTINUOUS
 10
1146.150000
 20
551.850000
 11
1154.640000
 21
551.850000
  0
LINE
  8
1
 62
7
  6
CONTINUOUS
 10
1146.150000
 20
677.785000
 11
1154.640000
 21
677.785000
  0
TEXT
  8
1
 62
7
  6
CONTINUOUS
 10
1148.697000
 20
736.224500
 40
9.056000
 41
1.000000
  1
A
  7
KANJI
 50
0.000000
 51
0.000000
  0
LINE
  8
1
 62
7
  6
CONTINUOUS
 10
1160.300000
 20
-0.092559
 11
1188.600000
 21
-0.092559
  0
LINE
  8
1
 62
7
  6
CONTINUOUS
 10
1188.600000
 20
-0.092559
 11
1188.600000
 21
28.207441
  0
LINE
  8
1
 62
7
  6
CONTINUOUS
 10
0.000000
 20
840.510000
 11
28.300000
 21
840.510000
  0
LINE
  8
1
 62
7
  6
CONTINUOUS
 10
0.000000
 20
812.210000
 11
0.000000
 21
840.510000
  0
LINE
  8
1
 62
7
  6
CONTINUOUS
 10
1160.300000
 20
840.510000
 11
1188.600000
 21
840.510000
  0
LINE
  8
1
 62
7
  6
CONTINUOUS
 10
1188.600000
 20
812.117441
 11
1188.600000
 21
840.510000
  0
TEXT
  8
1
 62
7
  6
CONTINUOUS
 10
1015.970000
 20
111.030000
 40
10.000000
 41
0.578703
  1
精密ラボジャッキ
  7
KANJI
 50
0.000000
 51
0.000000
  0
TEXT
  8
1
 62
7
  6
CONTINUOUS
 10
1015.970000
 20
134.170000
 40
9.000000
 41
0.555556
  1
LABZ-70-G
  7
KANJI
 50
0.000000
 51
0.000000
  0
LINE
  8
1
 62
7
  6
DASHDOT
 10
707.457596
 20
677.505000
 11
372.398596
 21
677.505000
  0
LINE
  8
1
 62
7
  6
CONTINUOUS
 10
378.398596
 20
617.505000
 11
377.398596
 21
618.505000
  0
LINE
  8
1
 62
7
  6
CONTINUOUS
 10
397.398596
 20
618.505000
 11
396.398596
 21
617.505000
  0
LINE
  8
1
 62
7
  6
CONTINUOUS
 10
377.398596
 20
618.505000
 11
397.398596
 21
618.505000
  0
LINE
  8
1
 62
7
  6
CONTINUOUS
 10
378.398596
 20
617.505000
 11
378.398596
 21
613.505000
  0
LINE
  8
1
 62
7
  6
CONTINUOUS
 10
379.898596
 20
613.255000
 11
379.898596
 21
613.505000
  0
LINE
  8
1
 62
7
  6
CONTINUOUS
 10
394.898596
 20
613.255000
 11
394.898596
 21
613.505000
  0
LINE
  8
1
 62
7
  6
CONTINUOUS
 10
378.898596
 20
609.255000
 11
378.898596
 21
608.255000
  0
LINE
  8
1
 62
7
  6
CONTINUOUS
 10
378.898596
 20
608.255000
 11
395.898596
 21
608.255000
  0
LINE
  8
1
 62
7
  6
CONTINUOUS
 10
395.898596
 20
608.255000
 11
395.898596
 21
609.255000
  0
LINE
  8
1
 62
7
  6
CONTINUOUS
 10
378.898596
 20
608.255000
 11
378.898596
 21
606.255000
  0
LINE
  8
1
 62
7
  6
CONTINUOUS
 10
378.898596
 20
606.255000
 11
379.898596
 21
605.255000
  0
LINE
  8
1
 62
7
  6
CONTINUOUS
 10
395.898596
 20
606.255000
 11
395.898596
 21
608.255000
  0
LINE
  8
1
 62
7
  6
CONTINUOUS
 10
379.898596
 20
605.255000
 11
394.898596
 21
605.255000
  0
LINE
  8
1
 62
7
  6
CONTINUOUS
 10
395.898596
 20
606.255000
 11
394.898596
 21
605.255000
  0
LINE
  8
1
 62
7
  6
CONTINUOUS
 10
378.898596
 20
606.255000
 11
395.898596
 21
606.255000
  0
LINE
  8
1
 62
7
  6
CONTINUOUS
 10
378.398596
 20
737.505000
 11
377.398596
 21
736.505000
  0
LINE
  8
1
 62
7
  6
CONTINUOUS
 10
397.398596
 20
736.505000
 11
396.398596
 21
737.505000
  0
LINE
  8
1
 62
7
  6
CONTINUOUS
 10
377.398596
 20
736.505000
 11
397.398596
 21
736.505000
  0
LINE
  8
1
 62
7
  6
CONTINUOUS
 10
378.398596
 20
737.505000
 11
378.398596
 21
741.505000
  0
LINE
  8
1
 62
7
  6
CONTINUOUS
 10
379.898596
 20
741.755000
 11
379.898596
 21
741.505000
  0
LINE
  8
1
 62
7
  6
CONTINUOUS
 10
394.898596
 20
741.755000
 11
394.898596
 21
741.505000
  0
LINE
  8
1
 62
7
  6
CONTINUOUS
 10
378.898596
 20
745.755000
 11
378.898596
 21
746.755000
  0
LINE
  8
1
 62
7
  6
CONTINUOUS
 10
378.898596
 20
746.755000
 11
395.898596
 21
746.755000
  0
LINE
  8
1
 62
7
  6
CONTINUOUS
 10
395.898596
 20
746.755000
 11
395.898596
 21
745.755000
  0
LINE
  8
1
 62
7
  6
CONTINUOUS
 10
378.898596
 20
746.755000
 11
378.898596
 21
748.755000
  0
LINE
  8
1
 62
7
  6
CONTINUOUS
 10
378.898596
 20
748.755000
 11
379.898596
 21
749.755000
  0
LINE
  8
1
 62
7
  6
CONTINUOUS
 10
395.898596
 20
748.755000
 11
395.898596
 21
746.755000
  0
LINE
  8
1
 62
7
  6
CONTINUOUS
 10
379.898596
 20
749.755000
 11
394.898596
 21
749.755000
  0
LINE
  8
1
 62
7
  6
CONTINUOUS
 10
395.898596
 20
748.755000
 11
394.898596
 21
749.755000
  0
LINE
  8
1
 62
7
  6
CONTINUOUS
 10
378.898596
 20
748.755000
 11
395.898596
 21
748.755000
  0
LINE
  8
1
 62
7
  6
CONTINUOUS
 10
378.398596
 20
741.755000
 11
378.398596
 21
745.755000
  0
LINE
  8
1
 62
7
  6
CONTINUOUS
 10
378.398596
 20
613.255000
 11
378.398596
 21
609.255000
  0
LINE
  8
1
 62
7
  6
CONTINUOUS
 10
378.398596
 20
609.255000
 11
411.928000
 21
609.255000
  0
LINE
  8
1
 62
7
  6
CONTINUOUS
 10
378.398596
 20
613.505000
 11
411.928000
 21
613.505000
  0
LINE
  8
1
 62
7
  6
CONTINUOUS
 10
378.398596
 20
613.255000
 11
411.928000
 21
613.255000
  0
LINE
  8
1
 62
7
  6
CONTINUOUS
 10
378.398596
 20
617.505000
 11
411.928000
 21
617.505000
  0
LINE
  8
1
 62
7
  6
CONTINUOUS
 10
378.398596
 20
745.755000
 11
411.928000
 21
745.755000
  0
LINE
  8
1
 62
7
  6
CONTINUOUS
 10
378.398596
 20
741.505000
 11
411.928000
 21
741.505000
  0
LINE
  8
1
 62
7
  6
CONTINUOUS
 10
378.398596
 20
741.755000
 11
411.928000
 21
741.755000
  0
LINE
  8
1
 62
7
  6
CONTINUOUS
 10
378.398596
 20
737.505000
 11
411.928000
 21
737.505000
  0
LINE
  8
1
 62
7
  6
DASHDOT
 10
387.398596
 20
602.255000
 11
387.398596
 21
752.755000
  0
LINE
  8
1
 62
7
  6
DASHDOT
 10
414.928000
 20
652.505000
 11
374.398596
 21
652.505000
  0
LINE
  8
1
 62
7
  6
DASHDOT
 10
414.928000
 20
702.505000
 11
374.398596
 21
702.505000
  0
LINE
  8
1
 62
7
  6
CONTINUOUS
 10
397.398596
 20
707.505000
 11
411.928000
 21
707.505000
  0
LINE
  8
1
 62
7
  6
CONTINUOUS
 10
397.398596
 20
697.505000
 11
411.928000
 21
697.505000
  0
LINE
  8
1
 62
7
  6
CONTINUOUS
 10
397.398596
 20
647.505000
 11
411.928000
 21
647.505000
  0
LINE
  8
1
 62
7
  6
CONTINUOUS
 10
397.398596
 20
657.505000
 11
411.928000
 21
657.505000
  0
ARC
  8
1
 62
7
  6
CONTINUOUS
 10
377.359807
 20
648.093014
 40
0.589292
 50
-86.225897
 51
-20.607730
  0
ARC
  8
1
 62
7
  6
CONTINUOUS
 10
374.906613
 20
649.719904
 40
3.520420
 50
-31.402463
 51
-12.308026
  0
ARC
  8
1
 62
7
  6
CONTINUOUS
 10
368.194097
 20
651.624474
 40
10.493456
 50
-14.656032
 51
-5.648882
  0
ARC
  8
1
 62
7
  6
CONTINUOUS
 10
361.535691
 20
652.462634
 40
17.202956
 50
-6.244033
 51
0.141104
  0
ARC
  8
1
 62
7
  6
CONTINUOUS
 10
360.901222
 20
652.513543
 40
17.837375
 50
-0.027443
 51
6.130372
  0
ARC
  8
1
 62
7
  6
CONTINUOUS
 10
366.894738
 20
653.152847
 40
11.809862
 50
6.151749
 51
14.153164
  0
ARC
  8
1
 62
7
  6
CONTINUOUS
 10
374.034828
 20
654.940431
 40
4.449432
 50
14.314580
 51
29.395909
  0
ARC
  8
1
 62
7
  6
CONTINUOUS
 10
377.225835
 20
656.736482
 40
0.787697
 50
29.502939
 51
77.330689
  0
ARC
  8
1
 62
7
  6
CONTINUOUS
 10
397.437384
 20
648.093014
 40
0.589292
 50
-159.392270
 51
-93.774103
  0
ARC
  8
1
 62
7
  6
CONTINUOUS
 10
399.890578
 20
649.719904
 40
3.520420
 50
-167.691974
 51
-148.597537
  0
ARC
  8
1
 62
7
  6
CONTINUOUS
 10
406.603094
 20
651.624474
 40
10.493456
 50
-174.351118
 51
-165.343968
  0
ARC
  8
1
 62
7
  6
CONTINUOUS
 10
413.261500
 20
652.462634
 40
17.202956
 50
179.858896
 51
-173.755967
  0
ARC
  8
1
 62
7
  6
CONTINUOUS
 10
413.895969
 20
652.513543
 40
17.837375
 50
173.869628
 51
-179.972557
  0
ARC
  8
1
 62
7
  6
CONTINUOUS
 10
407.902453
 20
653.152847
 40
11.809862
 50
165.846836
 51
173.848251
  0
ARC
  8
1
 62
7
  6
CONTINUOUS
 10
400.762363
 20
654.940431
 40
4.449432
 50
150.604091
 51
165.685420
  0
ARC
  8
1
 62
7
  6
CONTINUOUS
 10
397.571356
 20
656.736482
 40
0.787697
 50
102.669311
 51
150.497061
  0
ARC
  8
1
 62
7
  6
CONTINUOUS
 10
397.437384
 20
706.916986
 40
0.589292
 50
93.774103
 51
159.392270
  0
ARC
  8
1
 62
7
  6
CONTINUOUS
 10
399.890578
 20
705.290096
 40
3.520420
 50
148.597537
 51
167.691974
  0
ARC
  8
1
 62
7
  6
CONTINUOUS
 10
406.603094
 20
703.385526
 40
10.493456
 50
165.343968
 51
174.351118
  0
ARC
  8
1
 62
7
  6
CONTINUOUS
 10
413.261500
 20
702.547366
 40
17.202956
 50
173.755967
 51
-179.858896
  0
ARC
  8
1
 62
7
  6
CONTINUOUS
 10
413.895969
 20
702.496457
 40
17.837375
 50
179.972557
 51
-173.869628
  0
ARC
  8
1
 62
7
  6
CONTINUOUS
 10
407.902453
 20
701.857153
 40
11.809862
 50
-173.848251
 51
-165.846836
  0
ARC
  8
1
 62
7
  6
CONTINUOUS
 10
400.762363
 20
700.069569
 40
4.449432
 50
-165.685420
 51
-150.604091
  0
ARC
  8
1
 62
7
  6
CONTINUOUS
 10
397.571356
 20
698.273518
 40
0.787697
 50
-150.497061
 51
-102.669311
  0
LINE
  8
1
 62
7
  6
CONTINUOUS
 10
397.398596
 20
707.505000
 11
397.398596
 21
736.505000
  0
LINE
  8
1
 62
7
  6
CONTINUOUS
 10
397.398596
 20
657.505000
 11
397.398596
 21
697.505000
  0
LINE
  8
1
 62
7
  6
CONTINUOUS
 10
397.398596
 20
618.505000
 11
397.398596
 21
647.505000
  0
LINE
  8
1
 62
7
  6
CONTINUOUS
 10
377.398596
 20
647.505000
 11
377.398596
 21
618.505000
  0
LINE
  8
1
 62
7
  6
CONTINUOUS
 10
377.398596
 20
657.005000
 11
377.398596
 21
648.005000
  0
LINE
  8
1
 62
7
  6
CONTINUOUS
 10
377.398596
 20
657.005000
 11
377.736760
 21
657.343165
  0
LINE
  8
1
 62
7
  6
CONTINUOUS
 10
377.736760
 20
647.666835
 11
377.398596
 21
648.005000
  0
LINE
  8
1
 62
7
  6
CONTINUOUS
 10
377.898596
 20
657.143887
 11
377.898596
 21
647.866113
  0
ARC
  8
1
 62
7
  6
CONTINUOUS
 10
377.359807
 20
706.916986
 40
0.589292
 50
20.607730
 51
86.225897
  0
ARC
  8
1
 62
7
  6
CONTINUOUS
 10
374.906613
 20
705.290096
 40
3.520420
 50
12.308026
 51
31.402463
  0
ARC
  8
1
 62
7
  6
CONTINUOUS
 10
368.194097
 20
703.385526
 40
10.493456
 50
5.648882
 51
14.656032
  0
ARC
  8
1
 62
7
  6
CONTINUOUS
 10
361.535691
 20
702.547366
 40
17.202956
 50
-0.141104
 51
6.244033
  0
ARC
  8
1
 62
7
  6
CONTINUOUS
 10
360.901222
 20
702.496457
 40
17.837375
 50
-6.130372
 51
0.027443
  0
ARC
  8
1
 62
7
  6
CONTINUOUS
 10
366.894738
 20
701.857153
 40
11.809862
 50
-14.153164
 51
-6.151749
  0
ARC
  8
1
 62
7
  6
CONTINUOUS
 10
374.034828
 20
700.069569
 40
4.449432
 50
-29.395909
 51
-14.314580
  0
ARC
  8
1
 62
7
  6
CONTINUOUS
 10
377.225835
 20
698.273518
 40
0.787697
 50
-77.330689
 51
-29.502939
  0
LINE
  8
1
 62
7
  6
CONTINUOUS
 10
377.398596
 20
698.005000
 11
377.398596
 21
707.005000
  0
LINE
  8
1
 62
7
  6
CONTINUOUS
 10
377.398596
 20
698.005000
 11
377.736760
 21
697.666835
  0
LINE
  8
1
 62
7
  6
CONTINUOUS
 10
377.736760
 20
707.343165
 11
377.398596
 21
707.005000
  0
LINE
  8
1
 62
7
  6
CONTINUOUS
 10
377.898596
 20
697.866113
 11
377.898596
 21
707.143887
  0
LINE
  8
1
 62
7
  6
CONTINUOUS
 10
377.398596
 20
697.505000
 11
377.398596
 21
657.505000
  0
LINE
  8
1
 62
7
  6
CONTINUOUS
 10
377.398596
 20
736.505000
 11
377.398596
 21
707.505000
  0
LINE
  8
1
 62
7
  6
CONTINUOUS
 10
665.457404
 20
617.505000
 11
666.457404
 21
618.505000
  0
LINE
  8
1
 62
7
  6
CONTINUOUS
 10
646.457404
 20
618.505000
 11
647.457404
 21
617.505000
  0
LINE
  8
1
 62
7
  6
CONTINUOUS
 10
666.457404
 20
618.505000
 11
646.457404
 21
618.505000
  0
LINE
  8
1
 62
7
  6
CONTINUOUS
 10
665.457404
 20
617.505000
 11
665.457404
 21
613.505000
  0
LINE
  8
1
 62
7
  6
CONTINUOUS
 10
663.957404
 20
613.255000
 11
663.957404
 21
613.505000
  0
LINE
  8
1
 62
7
  6
CONTINUOUS
 10
648.957404
 20
613.255000
 11
648.957404
 21
613.505000
  0
LINE
  8
1
 62
7
  6
CONTINUOUS
 10
664.957404
 20
609.255000
 11
664.957404
 21
608.255000
  0
LINE
  8
1
 62
7
  6
CONTINUOUS
 10
664.957404
 20
608.255000
 11
647.957404
 21
608.255000
  0
LINE
  8
1
 62
7
  6
CONTINUOUS
 10
647.957404
 20
608.255000
 11
647.957404
 21
609.255000
  0
LINE
  8
1
 62
7
  6
CONTINUOUS
 10
664.957404
 20
608.255000
 11
664.957404
 21
606.255000
  0
LINE
  8
1
 62
7
  6
CONTINUOUS
 10
664.957404
 20
606.255000
 11
663.957404
 21
605.255000
  0
LINE
  8
1
 62
7
  6
CONTINUOUS
 10
647.957404
 20
606.255000
 11
647.957404
 21
608.255000
  0
LINE
  8
1
 62
7
  6
CONTINUOUS
 10
663.957404
 20
605.255000
 11
648.957404
 21
605.255000
  0
LINE
  8
1
 62
7
  6
CONTINUOUS
 10
647.957404
 20
606.255000
 11
648.957404
 21
605.255000
  0
LINE
  8
1
 62
7
  6
CONTINUOUS
 10
664.957404
 20
606.255000
 11
647.957404
 21
606.255000
  0
LINE
  8
1
 62
7
  6
CONTINUOUS
 10
665.457404
 20
737.505000
 11
666.457404
 21
736.505000
  0
LINE
  8
1
 62
7
  6
CONTINUOUS
 10
646.457404
 20
736.505000
 11
647.457404
 21
737.505000
  0
LINE
  8
1
 62
7
  6
CONTINUOUS
 10
666.457404
 20
736.505000
 11
646.457404
 21
736.505000
  0
LINE
  8
1
 62
7
  6
CONTINUOUS
 10
665.457404
 20
737.505000
 11
665.457404
 21
741.505000
  0
LINE
  8
1
 62
7
  6
CONTINUOUS
 10
663.957404
 20
741.755000
 11
663.957404
 21
741.505000
  0
LINE
  8
1
 62
7
  6
CONTINUOUS
 10
648.957404
 20
741.755000
 11
648.957404
 21
741.505000
  0
LINE
  8
1
 62
7
  6
CONTINUOUS
 10
664.957404
 20
745.755000
 11
664.957404
 21
746.755000
  0
LINE
  8
1
 62
7
  6
CONTINUOUS
 10
664.957404
 20
746.755000
 11
647.957404
 21
746.755000
  0
LINE
  8
1
 62
7
  6
CONTINUOUS
 10
647.957404
 20
746.755000
 11
647.957404
 21
745.755000
  0
LINE
  8
1
 62
7
  6
CONTINUOUS
 10
664.957404
 20
746.755000
 11
664.957404
 21
748.755000
  0
LINE
  8
1
 62
7
  6
CONTINUOUS
 10
664.957404
 20
748.755000
 11
663.957404
 21
749.755000
  0
LINE
  8
1
 62
7
  6
CONTINUOUS
 10
647.957404
 20
748.755000
 11
647.957404
 21
746.755000
  0
LINE
  8
1
 62
7
  6
CONTINUOUS
 10
663.957404
 20
749.755000
 11
648.957404
 21
749.755000
  0
LINE
  8
1
 62
7
  6
CONTINUOUS
 10
647.957404
 20
748.755000
 11
648.957404
 21
749.755000
  0
LINE
  8
1
 62
7
  6
CONTINUOUS
 10
664.957404
 20
748.755000
 11
647.957404
 21
748.755000
  0
LINE
  8
1
 62
7
  6
CONTINUOUS
 10
665.457404
 20
741.755000
 11
665.457404
 21
745.755000
  0
LINE
  8
1
 62
7
  6
CONTINUOUS
 10
665.457404
 20
613.255000
 11
665.457404
 21
609.255000
  0
LINE
  8
1
 62
7
  6
CONTINUOUS
 10
665.457404
 20
609.255000
 11
631.928000
 21
609.255000
  0
LINE
  8
1
 62
7
  6
CONTINUOUS
 10
665.457404
 20
613.505000
 11
631.928000
 21
613.505000
  0
LINE
  8
1
 62
7
  6
CONTINUOUS
 10
665.457404
 20
613.255000
 11
631.928000
 21
613.255000
  0
LINE
  8
1
 62
7
  6
CONTINUOUS
 10
665.457404
 20
617.505000
 11
631.928000
 21
617.505000
  0
LINE
  8
1
 62
7
  6
CONTINUOUS
 10
665.457404
 20
745.755000
 11
631.928000
 21
745.755000
  0
LINE
  8
1
 62
7
  6
CONTINUOUS
 10
665.457404
 20
741.505000
 11
631.928000
 21
741.505000
  0
LINE
  8
1
 62
7
  6
CONTINUOUS
 10
665.457404
 20
741.755000
 11
631.928000
 21
741.755000
  0
LINE
  8
1
 62
7
  6
CONTINUOUS
 10
665.457404
 20
737.505000
 11
631.928000
 21
737.505000
  0
LINE
  8
1
 62
7
  6
DASHDOT
 10
628.928000
 20
717.505000
 11
669.457404
 21
717.505000
  0
LINE
  8
1
 62
7
  6
CONTINUOUS
 10
646.457404
 20
722.505000
 11
631.928000
 21
722.505000
  0
LINE
  8
1
 62
7
  6
CONTINUOUS
 10
646.457404
 20
712.505000
 11
631.928000
 21
712.505000
  0
ARC
  8
1
 62
7
  6
CONTINUOUS
 10
646.418616
 20
721.916986
 40
0.589292
 50
20.607730
 51
86.225897
  0
ARC
  8
1
 62
7
  6
CONTINUOUS
 10
643.965422
 20
720.290096
 40
3.520420
 50
12.308026
 51
31.402463
  0
ARC
  8
1
 62
7
  6
CONTINUOUS
 10
637.252906
 20
718.385526
 40
10.493456
 50
5.648882
 51
14.656032
  0
ARC
  8
1
 62
7
  6
CONTINUOUS
 10
630.594500
 20
717.547366
 40
17.202956
 50
-0.141104
 51
6.244033
  0
ARC
  8
1
 62
7
  6
CONTINUOUS
 10
629.960031
 20
717.496457
 40
17.837375
 50
-6.130372
 51
0.027443
  0
ARC
  8
1
 62
7
  6
CONTINUOUS
 10
635.953547
 20
716.857153
 40
11.809862
 50
-14.153164
 51
-6.151749
  0
ARC
  8
1
 62
7
  6
CONTINUOUS
 10
643.093637
 20
715.069569
 40
4.449432
 50
-29.395909
 51
-14.314580
  0
ARC
  8
1
 62
7
  6
CONTINUOUS
 10
646.284644
 20
713.273518
 40
0.787697
 50
-77.330689
 51
-29.502939
  0
LINE
  8
1
 62
7
  6
CONTINUOUS
 10
646.457404
 20
722.505000
 11
646.457404
 21
736.505000
  0
ARC
  8
1
 62
7
  6
CONTINUOUS
 10
666.496193
 20
721.916986
 40
0.589292
 50
93.774103
 51
159.392270
  0
ARC
  8
1
 62
7
  6
CONTINUOUS
 10
668.949387
 20
720.290096
 40
3.520420
 50
148.597537
 51
167.691974
  0
ARC
  8
1
 62
7
  6
CONTINUOUS
 10
675.661903
 20
718.385526
 40
10.493456
 50
165.343968
 51
174.351118
  0
ARC
  8
1
 62
7
  6
CONTINUOUS
 10
682.320309
 20
717.547366
 40
17.202956
 50
173.755967
 51
-179.858896
  0
ARC
  8
1
 62
7
  6
CONTINUOUS
 10
682.954778
 20
717.496457
 40
17.837375
 50
179.972557
 51
-173.869628
  0
ARC
  8
1
 62
7
  6
CONTINUOUS
 10
676.961262
 20
716.857153
 40
11.809862
 50
-173.848251
 51
-165.846836
  0
ARC
  8
1
 62
7
  6
CONTINUOUS
 10
669.821172
 20
715.069569
 40
4.449432
 50
-165.685420
 51
-150.604091
  0
ARC
  8
1
 62
7
  6
CONTINUOUS
 10
666.630165
 20
713.273518
 40
0.787697
 50
-150.497061
 51
-102.669311
  0
LINE
  8
1
 62
7
  6
CONTINUOUS
 10
666.457404
 20
713.005000
 11
666.457404
 21
722.005000
  0
LINE
  8
1
 62
7
  6
CONTINUOUS
 10
666.457404
 20
713.005000
 11
666.119240
 21
712.666835
  0
LINE
  8
1
 62
7
  6
CONTINUOUS
 10
666.119240
 20
722.343165
 11
666.457404
 21
722.005000
  0
LINE
  8
1
 62
7
  6
CONTINUOUS
 10
665.957404
 20
712.866113
 11
665.957404
 21
722.143887
  0
LINE
  8
1
 62
7
  6
CONTINUOUS
 10
666.457404
 20
736.505000
 11
666.457404
 21
722.505000
  0
LINE
  8
1
 62
7
  6
DASHDOT
 10
628.928000
 20
637.505000
 11
669.457404
 21
637.505000
  0
LINE
  8
1
 62
7
  6
CONTINUOUS
 10
646.457404
 20
632.505000
 11
631.928000
 21
632.505000
  0
LINE
  8
1
 62
7
  6
CONTINUOUS
 10
646.457404
 20
642.505000
 11
631.928000
 21
642.505000
  0
ARC
  8
1
 62
7
  6
CONTINUOUS
 10
666.496193
 20
633.093014
 40
0.589292
 50
-159.392270
 51
-93.774103
  0
ARC
  8
1
 62
7
  6
CONTINUOUS
 10
668.949387
 20
634.719904
 40
3.520420
 50
-167.691974
 51
-148.597537
  0
ARC
  8
1
 62
7
  6
CONTINUOUS
 10
675.661903
 20
636.624474
 40
10.493456
 50
-174.351118
 51
-165.343968
  0
ARC
  8
1
 62
7
  6
CONTINUOUS
 10
682.320309
 20
637.462634
 40
17.202956
 50
179.858896
 51
-173.755967
  0
ARC
  8
1
 62
7
  6
CONTINUOUS
 10
682.954778
 20
637.513543
 40
17.837375
 50
173.869628
 51
-179.972557
  0
ARC
  8
1
 62
7
  6
CONTINUOUS
 10
676.961262
 20
638.152847
 40
11.809862
 50
165.846836
 51
173.848251
  0
ARC
  8
1
 62
7
  6
CONTINUOUS
 10
669.821172
 20
639.940431
 40
4.449432
 50
150.604091
 51
165.685420
  0
ARC
  8
1
 62
7
  6
CONTINUOUS
 10
666.630165
 20
641.736482
 40
0.787697
 50
102.669311
 51
150.497061
  0
ARC
  8
1
 62
7
  6
CONTINUOUS
 10
646.418616
 20
633.093014
 40
0.589292
 50
-86.225897
 51
-20.607730
  0
ARC
  8
1
 62
7
  6
CONTINUOUS
 10
643.965422
 20
634.719904
 40
3.520420
 50
-31.402463
 51
-12.308026
  0
ARC
  8
1
 62
7
  6
CONTINUOUS
 10
637.252906
 20
636.624474
 40
10.493456
 50
-14.656032
 51
-5.648882
  0
ARC
  8
1
 62
7
  6
CONTINUOUS
 10
630.594500
 20
637.462634
 40
17.202956
 50
-6.244033
 51
0.141104
  0
ARC
  8
1
 62
7
  6
CONTINUOUS
 10
629.960031
 20
637.513543
 40
17.837375
 50
-0.027443
 51
6.130372
  0
ARC
  8
1
 62
7
  6
CONTINUOUS
 10
635.953547
 20
638.152847
 40
11.809862
 50
6.151749
 51
14.153164
  0
ARC
  8
1
 62
7
  6
CONTINUOUS
 10
643.093637
 20
639.940431
 40
4.449432
 50
14.314580
 51
29.395909
  0
ARC
  8
1
 62
7
  6
CONTINUOUS
 10
646.284644
 20
641.736482
 40
0.787697
 50
29.502939
 51
77.330689
  0
LINE
  8
1
 62
7
  6
CONTINUOUS
 10
646.457404
 20
618.505000
 11
646.457404
 21
632.505000
  0
LINE
  8
1
 62
7
  6
CONTINUOUS
 10
666.457404
 20
632.505000
 11
666.457404
 21
618.505000
  0
LINE
  8
1
 62
7
  6
CONTINUOUS
 10
666.457404
 20
642.005000
 11
666.457404
 21
633.005000
  0
LINE
  8
1
 62
7
  6
CONTINUOUS
 10
666.457404
 20
642.005000
 11
666.119240
 21
642.343165
  0
LINE
  8
1
 62
7
  6
CONTINUOUS
 10
666.119240
 20
632.666835
 11
666.457404
 21
633.005000
  0
LINE
  8
1
 62
7
  6
CONTINUOUS
 10
665.957404
 20
642.143887
 11
665.957404
 21
632.866113
  0
LINE
  8
1
 62
7
  6
DASHDOT
 10
656.457404
 20
602.255000
 11
656.457404
 21
752.755000
  0
LINE
  8
1
 62
7
  6
CONTINUOUS
 10
674.157596
 20
683.505000
 11
674.457596
 21
683.205000
  0
LINE
  8
1
 62
7
  6
CONTINUOUS
 10
674.157596
 20
671.505000
 11
674.457596
 21
671.805000
  0
LINE
  8
1
 62
7
  6
CONTINUOUS
 10
674.157596
 20
683.505000
 11
674.157596
 21
671.505000
  0
LINE
  8
1
 62
7
  6
CONTINUOUS
 10
666.457404
 20
683.505000
 11
674.157596
 21
683.505000
  0
LINE
  8
1
 62
7
  6
CONTINUOUS
 10
631.928000
 20
683.505000
 11
646.457404
 21
683.505000
  0
LINE
  8
1
 62
7
  6
CONTINUOUS
 10
666.457404
 20
671.505000
 11
674.157596
 21
671.505000
  0
LINE
  8
1
 62
7
  6
CONTINUOUS
 10
631.928000
 20
671.505000
 11
646.457404
 21
671.505000
  0
LINE
  8
1
 62
7
  6
CONTINUOUS
 10
675.057596
 20
688.505000
 11
684.457596
 21
688.505000
  0
LINE
  8
1
 62
7
  6
CONTINUOUS
 10
674.457596
 20
687.905000
 11
675.057596
 21
688.505000
  0
LINE
  8
1
 62
7
  6
CONTINUOUS
 10
684.457596
 20
666.505000
 11
675.057596
 21
666.505000
  0
LINE
  8
1
 62
7
  6
CONTINUOUS
 10
674.457596
 20
667.105000
 11
674.457596
 21
687.905000
  0
LINE
  8
1
 62
7
  6
CONTINUOUS
 10
675.057596
 20
666.505000
 11
674.457596
 21
667.105000
  0
LINE
  8
1
 62
7
  6
CONTINUOUS
 10
675.057596
 20
666.505000
 11
675.057596
 21
688.505000
  0
LINE
  8
1
 62
7
  6
CONTINUOUS
 10
684.457596
 20
648.505000
 11
685.457596
 21
647.505000
  0
LINE
  8
1
 62
7
  6
CONTINUOUS
 10
685.457596
 20
647.505000
 11
701.457596
 21
647.505000
  0
LINE
  8
1
 62
7
  6
CONTINUOUS
 10
702.457596
 20
648.505000
 11
701.457596
 21
647.505000
  0
LINE
  8
1
 62
7
  6
CONTINUOUS
 10
684.457596
 20
706.505000
 11
684.457596
 21
648.505000
  0
LINE
  8
1
 62
7
  6
CONTINUOUS
 10
685.457596
 20
707.505000
 11
684.457596
 21
706.505000
  0
LINE
  8
1
 62
7
  6
CONTINUOUS
 10
702.457596
 20
648.505000
 11
702.457596
 21
706.505000
  0
LINE
  8
1
 62
7
  6
CONTINUOUS
 10
701.457596
 20
707.505000
 11
685.457596
 21
707.505000
  0
LINE
  8
1
 62
7
  6
CONTINUOUS
 10
702.457596
 20
706.505000
 11
701.457596
 21
707.505000
  0
LINE
  8
1
 62
7
  6
CONTINUOUS
 10
701.457596
 20
647.505000
 11
701.457596
 21
707.505000
  0
LINE
  8
1
 62
7
  6
CONTINUOUS
 10
685.457596
 20
707.505000
 11
685.457596
 21
647.505000
  0
LINE
  8
1
 62
7
  6
CONTINUOUS
 10
700.457596
 20
647.505000
 11
700.457596
 21
707.505000
  0
LINE
  8
1
 62
7
  6
CONTINUOUS
 10
686.457596
 20
707.505000
 11
686.457596
 21
647.505000
  0
LINE
  8
1
 62
7
  6
CONTINUOUS
 10
689.724837
 20
696.639868
 11
686.457596
 21
696.639868
  0
LINE
  8
1
 62
7
  6
CONTINUOUS
 10
686.457596
 20
698.639868
 11
694.966216
 21
698.639868
  0
LINE
  8
1
 62
7
  6
CONTINUOUS
 10
700.207596
 20
700.639868
 11
686.457596
 21
700.639868
  0
LINE
  8
1
 62
7
  6
CONTINUOUS
 10
686.457596
 20
702.639868
 11
700.457596
 21
702.639868
  0
LINE
  8
1
 62
7
  6
CONTINUOUS
 10
700.457596
 20
704.639868
 11
686.457596
 21
704.639868
  0
LINE
  8
1
 62
7
  6
CONTINUOUS
 10
686.457596
 20
706.639868
 11
700.457596
 21
706.639868
  0
LINE
  8
1
 62
7
  6
CONTINUOUS
 10
698.457596
 20
707.505000
 11
698.457596
 21
699.972105
  0
LINE
  8
1
 62
7
  6
CONTINUOUS
 10
696.457596
 20
699.208947
 11
696.457596
 21
707.505000
  0
LINE
  8
1
 62
7
  6
CONTINUOUS
 10
694.457596
 20
707.505000
 11
694.457596
 21
698.445789
  0
LINE
  8
1
 62
7
  6
CONTINUOUS
 10
692.457596
 20
697.682632
 11
692.457596
 21
707.505000
  0
LINE
  8
1
 62
7
  6
CONTINUOUS
 10
690.457596
 20
707.505000
 11
690.457596
 21
696.919474
  0
LINE
  8
1
 62
7
  6
CONTINUOUS
 10
688.457596
 20
696.156316
 11
688.457596
 21
707.505000
  0
LINE
  8
1
 62
7
  6
CONTINUOUS
 10
697.190354
 20
658.370132
 11
700.457596
 21
658.370132
  0
LINE
  8
1
 62
7
  6
CONTINUOUS
 10
700.457596
 20
656.370132
 11
691.948975
 21
656.370132
  0
LINE
  8
1
 62
7
  6
CONTINUOUS
 10
686.707596
 20
654.370132
 11
700.457596
 21
654.370132
  0
LINE
  8
1
 62
7
  6
CONTINUOUS
 10
700.457596
 20
652.370132
 11
686.457596
 21
652.370132
  0
LINE
  8
1
 62
7
  6
CONTINUOUS
 10
686.457596
 20
650.370132
 11
700.457596
 21
650.370132
  0
LINE
  8
1
 62
7
  6
CONTINUOUS
 10
700.457596
 20
648.370132
 11
686.457596
 21
648.370132
  0
LINE
  8
1
 62
7
  6
CONTINUOUS
 10
688.457596
 20
647.505000
 11
688.457596
 21
655.037895
  0
LINE
  8
1
 62
7
  6
CONTINUOUS
 10
690.457596
 20
655.801053
 11
690.457596
 21
647.505000
  0
LINE
  8
1
 62
7
  6
CONTINUOUS
 10
692.457596
 20
647.505000
 11
692.457596
 21
656.564211
  0
LINE
  8
1
 62
7
  6
CONTINUOUS
 10
694.457596
 20
657.327368
 11
694.457596
 21
647.505000
  0
LINE
  8
1
 62
7
  6
CONTINUOUS
 10
696.457596
 20
647.505000
 11
696.457596
 21
658.090526
  0
LINE
  8
1
 62
7
  6
CONTINUOUS
 10
698.457596
 20
658.853684
 11
698.457596
 21
647.505000
  0
ARC
  8
1
 62
7
  6
CONTINUOUS
 10
666.491312
 20
682.578524
 40
0.927097
 50
92.096007
 51
149.556184
  0
ARC
  8
1
 62
7
  6
CONTINUOUS
 10
668.753938
 20
680.708628
 40
3.853465
 50
142.615956
 51
164.357708
  0
ARC
  8
1
 62
7
  6
CONTINUOUS
 10
674.959521
 20
678.517463
 40
10.429173
 50
161.957329
 51
172.930026
  0
ARC
  8
1
 62
7
  6
CONTINUOUS
 10
681.113783
 20
677.553711
 40
16.656450
 50
172.245654
 51
-179.832442
  0
ARC
  8
1
 62
7
  6
CONTINUOUS
 10
681.700246
 20
677.495174
 40
17.242844
 50
179.967350
 51
-172.380562
  0
ARC
  8
1
 62
7
  6
CONTINUOUS
 10
676.160895
 20
676.760114
 40
11.654940
 50
-172.351519
 51
-162.535836
  0
ARC
  8
1
 62
7
  6
CONTINUOUS
 10
669.560901
 20
674.703940
 40
4.742137
 50
-162.302352
 51
-144.671313
  0
ARC
  8
1
 62
7
  6
CONTINUOUS
 10
666.613891
 20
672.636892
 40
1.142658
 50
-143.780804
 51
-97.871386
  0
ARC
  8
1
 62
7
  6
CONTINUOUS
 10
646.423497
 20
682.578524
 40
0.927097
 50
30.443816
 51
87.903993
  0
ARC
  8
1
 62
7
  6
CONTINUOUS
 10
644.160871
 20
680.708628
 40
3.853465
 50
15.642292
 51
37.384044
  0
ARC
  8
1
 62
7
  6
CONTINUOUS
 10
637.955288
 20
678.517463
 40
10.429173
 50
7.069974
 51
18.042671
  0
ARC
  8
1
 62
7
  6
CONTINUOUS
 10
631.801026
 20
677.553711
 40
16.656450
 50
-0.167558
 51
7.754346
  0
ARC
  8
1
 62
7
  6
CONTINUOUS
 10
631.214563
 20
677.495174
 40
17.242844
 50
-7.619438
 51
0.032650
  0
ARC
  8
1
 62
7
  6
CONTINUOUS
 10
636.753914
 20
676.760114
 40
11.654940
 50
-17.464164
 51
-7.648481
  0
ARC
  8
1
 62
7
  6
CONTINUOUS
 10
643.353908
 20
674.703940
 40
4.742137
 50
-35.328687
 51
-17.697648
  0
ARC
  8
1
 62
7
  6
CONTINUOUS
 10
646.300918
 20
672.636892
 40
1.142658
 50
-82.128614
 51
-36.219196
  0
LINE
  8
1
 62
7
  6
CONTINUOUS
 10
666.457404
 20
671.505000
 11
666.457404
 21
642.505000
  0
LINE
  8
1
 62
7
  6
CONTINUOUS
 10
646.457404
 20
683.505000
 11
646.457404
 21
712.505000
  0
LINE
  8
1
 62
7
  6
CONTINUOUS
 10
646.457404
 20
642.505000
 11
646.457404
 21
671.505000
  0
CIRCLE
  8
1
 62
7
  6
CONTINUOUS
 10
656.457404
 20
687.005000
 40
8.000000
  0
ARC
  8
1
 62
7
  6
CONTINUOUS
 10
676.236773
 20
708.649018
 40
0.181841
 50
138.540678
 51
-156.726380
  0
ARC
  8
1
 62
7
  6
CONTINUOUS
 10
677.086164
 20
708.810847
 40
1.042950
 50
-167.052728
 51
-147.646250
  0
ARC
  8
1
 62
7
  6
CONTINUOUS
 10
678.872407
 20
709.792131
 40
3.079644
 50
-150.008769
 51
-140.793892
  0
ARC
  8
1
 62
7
  6
CONTINUOUS
 10
680.422092
 20
710.987592
 40
5.036407
 50
-141.399562
 51
-134.855970
  0
ARC
  8
1
 62
7
  6
CONTINUOUS
 10
680.563641
 20
711.107626
 40
5.221358
 50
-135.028017
 51
-128.716451
  0
ARC
  8
1
 62
7
  6
CONTINUOUS
 10
679.463227
 20
709.737031
 40
3.463678
 50
-128.694333
 51
-120.503005
  0
ARC
  8
1
 62
7
  6
CONTINUOUS
 10
678.369093
 20
707.887398
 40
1.314671
 50
-120.334521
 51
-104.966501
  0
ARC
  8
1
 62
7
  6
CONTINUOUS
 10
678.090909
 20
706.850061
 40
0.240683
 50
-104.764100
 51
-57.050198
  0
ARC
  8
1
 62
7
  6
CONTINUOUS
 10
678.085541
 20
706.768487
 40
0.181841
 50
-41.459322
 51
23.273620
  0
ARC
  8
1
 62
7
  6
CONTINUOUS
 10
677.236150
 20
706.606659
 40
1.042950
 50
12.947272
 51
32.353750
  0
ARC
  8
1
 62
7
  6
CONTINUOUS
 10
675.449907
 20
705.625375
 40
3.079644
 50
29.991231
 51
39.206108
  0
ARC
  8
1
 62
7
  6
CONTINUOUS
 10
673.900222
 20
704.429913
 40
5.036407
 50
38.600438
 51
45.144030
  0
ARC
  8
1
 62
7
  6
CONTINUOUS
 10
673.758673
 20
704.309880
 40
5.221358
 50
44.971983
 51
51.283549
  0
ARC
  8
1
 62
7
  6
CONTINUOUS
 10
674.859087
 20
705.680475
 40
3.463678
 50
51.305667
 51
59.496995
  0
ARC
  8
1
 62
7
  6
CONTINUOUS
 10
675.953221
 20
707.530107
 40
1.314671
 50
59.665479
 51
75.033499
  0
ARC
  8
1
 62
7
  6
CONTINUOUS
 10
676.231405
 20
708.567445
 40
0.240683
 50
75.235900
 51
122.949802
  0
LINE
  8
1
 62
7
  6
CONTINUOUS
 10
678.316553
 20
705.457990
 11
678.259984
 21
706.773209
  0
LINE
  8
1
 62
7
  6
CONTINUOUS
 10
674.910395
 20
708.864148
 11
676.225613
 21
708.807580
  0
ARC
  8
1
 62
7
  6
CONTINUOUS
 10
674.888754
 20
708.618850
 40
0.244338
 50
84.498193
 51
156.755350
  0
ARC
  8
1
 62
7
  6
CONTINUOUS
 10
675.230445
 20
708.569749
 40
0.584600
 50
165.585125
 51
-151.253626
  0
ARC
  8
1
 62
7
  6
CONTINUOUS
 10
677.454622
 20
709.367138
 40
2.941589
 50
-158.490641
 51
-144.353401
  0
ARC
  8
1
 62
7
  6
CONTINUOUS
 10
680.696374
 20
711.484352
 40
6.811892
 50
-145.772810
 51
-137.854843
  0
ARC
  8
1
 62
7
  6
CONTINUOUS
 10
682.368182
 20
712.915778
 40
9.012156
 50
-138.239325
 51
-131.760675
  0
ARC
  8
1
 62
7
  6
CONTINUOUS
 10
681.295047
 20
711.699502
 40
7.390171
 50
-131.834930
 51
-124.537417
  0
ARC
  8
1
 62
7
  6
CONTINUOUS
 10
679.111116
 20
708.537491
 40
3.547284
 50
-124.434976
 51
-112.720982
  0
ARC
  8
1
 62
7
  6
CONTINUOUS
 10
678.051267
 20
706.009609
 40
0.806214
 50
-112.634066
 51
-81.697433
  0
ARC
  8
1
 62
7
  6
CONTINUOUS
 10
678.104153
 20
705.416872
 40
0.214645
 50
-72.783574
 51
11.530031
  0
LINE
  8
1
 62
7
  6
CONTINUOUS
 10
674.713490
 20
708.796619
 11
661.123520
 21
695.206650
  0
LINE
  8
1
 62
7
  6
CONTINUOUS
 10
664.659054
 20
691.671116
 11
678.249024
 21
705.261086
  0
ARC
  8
1
 62
7
  6
CONTINUOUS
 10
661.350647
 20
695.005992
 40
0.303068
 50
138.540678
 51
-156.726380
  0
ARC
  8
1
 62
7
  6
CONTINUOUS
 10
662.766299
 20
695.275706
 40
1.738251
 50
-167.052728
 51
-147.646250
  0
ARC
  8
1
 62
7
  6
CONTINUOUS
 10
665.743370
 20
696.911179
 40
5.132740
 50
-150.008769
 51
-140.793892
  0
ARC
  8
1
 62
7
  6
CONTINUOUS
 10
668.326179
 20
698.903616
 40
8.394012
 50
-141.399562
 51
-134.855970
  0
ARC
  8
1
 62
7
  6
CONTINUOUS
 10
668.562094
 20
699.103671
 40
8.702263
 50
-135.028017
 51
-128.716451
  0
ARC
  8
1
 62
7
  6
CONTINUOUS
 10
666.728071
 20
696.819346
 40
5.772797
 50
-128.694333
 51
-120.503005
  0
ARC
  8
1
 62
7
  6
CONTINUOUS
 10
664.904514
 20
693.736626
 40
2.191119
 50
-120.334521
 51
-104.966501
  0
ARC
  8
1
 62
7
  6
CONTINUOUS
 10
664.440874
 20
692.007730
 40
0.401138
 50
-104.764100
 51
-57.050198
  0
ARC
  8
1
 62
7
  6
CONTINUOUS
 10
656.457404
 20
687.005000
 40
10.000000
 50
59.477512
 51
30.522488
  0
LINE
  8
1
 62
7
  6
DASHDOT
 10
660.991443
 20
691.539038
 11
678.866749
 21
709.414345
  0
LINE
  8
1
 62
7
  6
DASHDOT
 10
644.457404
 20
687.005000
 11
668.457404
 21
687.005000
  0
LINE
  8
1
 62
7
  6
CONTINUOUS
 10
666.457404
 20
693.469466
 11
666.457404
 21
683.505000
  0
LINE
  8
1
 62
7
  6
CONTINUOUS
 10
666.457404
 20
712.505000
 11
666.457404
 21
700.540534
  0
CIRCLE
  8
1
 62
7
  6
CONTINUOUS
 10
446.928000
 20
717.505000
 40
5.000000
  0
LINE
  8
1
 62
7
  6
DASHDOT
 10
452.928000
 20
717.505000
 11
440.928000
 21
717.505000
  0
LINE
  8
1
 62
7
  6
DASHDOT
 10
446.928000
 20
711.505000
 11
446.928000
 21
723.505000
  0
CIRCLE
  8
1
 62
7
  6
CONTINUOUS
 10
446.928000
 20
717.505000
 40
4.150000
  0
LINE
  8
1
 62
7
  6
CONTINUOUS
 10
444.928000
 20
717.505000
 11
445.928000
 21
719.237051
  0
LINE
  8
1
 62
7
  6
CONTINUOUS
 10
445.928000
 20
719.237051
 11
447.928000
 21
719.237051
  0
LINE
  8
1
 62
7
  6
CONTINUOUS
 10
447.928000
 20
719.237051
 11
448.928000
 21
717.505000
  0
LINE
  8
1
 62
7
  6
CONTINUOUS
 10
448.928000
 20
717.505000
 11
447.928000
 21
715.772949
  0
LINE
  8
1
 62
7
  6
CONTINUOUS
 10
447.928000
 20
715.772949
 11
445.928000
 21
715.772949
  0
LINE
  8
1
 62
7
  6
CONTINUOUS
 10
445.928000
 20
715.772949
 11
444.928000
 21
717.505000
  0
CIRCLE
  8
1
 62
7
  6
CONTINUOUS
 10
446.928000
 20
717.505000
 40
3.350000
  0
CIRCLE
  8
1
 62
7
  6
CONTINUOUS
 10
496.928000
 20
702.505000
 40
1.650000
  0
CIRCLE
  8
1
 62
7
  6
CONTINUOUS
 10
496.928000
 20
702.505000
 40
2.000000
  0
LINE
  8
1
 62
7
  6
DASHDOT
 10
491.928000
 20
702.505000
 11
501.928000
 21
702.505000
  0
LINE
  8
1
 62
7
  6
DASHDOT
 10
496.928000
 20
697.505000
 11
496.928000
 21
707.505000
  0
CIRCLE
  8
1
 62
7
  6
CONTINUOUS
 10
496.928000
 20
727.505000
 40
1.650000
  0
CIRCLE
  8
1
 62
7
  6
CONTINUOUS
 10
496.928000
 20
727.505000
 40
2.000000
  0
LINE
  8
1
 62
7
  6
DASHDOT
 10
491.928000
 20
727.505000
 11
501.928000
 21
727.505000
  0
LINE
  8
1
 62
7
  6
DASHDOT
 10
496.928000
 20
722.505000
 11
496.928000
 21
732.505000
  0
CIRCLE
  8
1
 62
7
  6
CONTINUOUS
 10
471.928000
 20
727.505000
 40
1.650000
  0
CIRCLE
  8
1
 62
7
  6
CONTINUOUS
 10
471.928000
 20
727.505000
 40
2.000000
  0
LINE
  8
1
 62
7
  6
DASHDOT
 10
466.928000
 20
727.505000
 11
476.928000
 21
727.505000
  0
LINE
  8
1
 62
7
  6
DASHDOT
 10
471.928000
 20
722.505000
 11
471.928000
 21
732.505000
  0
CIRCLE
  8
1
 62
7
  6
CONTINUOUS
 10
471.928000
 20
702.505000
 40
1.650000
  0
CIRCLE
  8
1
 62
7
  6
CONTINUOUS
 10
471.928000
 20
702.505000
 40
2.000000
  0
LINE
  8
1
 62
7
  6
DASHDOT
 10
466.928000
 20
702.505000
 11
476.928000
 21
702.505000
  0
LINE
  8
1
 62
7
  6
DASHDOT
 10
471.928000
 20
697.505000
 11
471.928000
 21
707.505000
  0
CIRCLE
  8
1
 62
7
  6
CONTINUOUS
 10
446.928000
 20
702.505000
 40
1.650000
  0
CIRCLE
  8
1
 62
7
  6
CONTINUOUS
 10
446.928000
 20
702.505000
 40
2.000000
  0
LINE
  8
1
 62
7
  6
DASHDOT
 10
441.928000
 20
702.505000
 11
451.928000
 21
702.505000
  0
LINE
  8
1
 62
7
  6
DASHDOT
 10
446.928000
 20
697.505000
 11
446.928000
 21
707.505000
  0
CIRCLE
  8
1
 62
7
  6
CONTINUOUS
 10
446.928000
 20
727.505000
 40
1.650000
  0
CIRCLE
  8
1
 62
7
  6
CONTINUOUS
 10
446.928000
 20
727.505000
 40
2.000000
  0
LINE
  8
1
 62
7
  6
DASHDOT
 10
441.928000
 20
727.505000
 11
451.928000
 21
727.505000
  0
LINE
  8
1
 62
7
  6
DASHDOT
 10
446.928000
 20
722.505000
 11
446.928000
 21
732.505000
  0
CIRCLE
  8
1
 62
7
  6
CONTINUOUS
 10
446.928000
 20
677.505000
 40
1.650000
  0
CIRCLE
  8
1
 62
7
  6
CONTINUOUS
 10
446.928000
 20
677.505000
 40
2.000000
  0
LINE
  8
1
 62
7
  6
DASHDOT
 10
446.928000
 20
672.505000
 11
446.928000
 21
682.505000
  0
CIRCLE
  8
1
 62
7
  6
CONTINUOUS
 10
471.928000
 20
677.505000
 40
1.650000
  0
CIRCLE
  8
1
 62
7
  6
CONTINUOUS
 10
471.928000
 20
677.505000
 40
2.000000
  0
LINE
  8
1
 62
7
  6
DASHDOT
 10
471.928000
 20
672.505000
 11
471.928000
 21
682.505000
  0
CIRCLE
  8
1
 62
7
  6
CONTINUOUS
 10
496.928000
 20
677.505000
 40
1.650000
  0
CIRCLE
  8
1
 62
7
  6
CONTINUOUS
 10
496.928000
 20
677.505000
 40
2.000000
  0
LINE
  8
1
 62
7
  6
DASHDOT
 10
496.928000
 20
672.505000
 11
496.928000
 21
682.505000
  0
CIRCLE
  8
1
 62
7
  6
CONTINUOUS
 10
596.928000
 20
677.505000
 40
1.650000
  0
CIRCLE
  8
1
 62
7
  6
CONTINUOUS
 10
596.928000
 20
677.505000
 40
2.000000
  0
LINE
  8
1
 62
7
  6
DASHDOT
 10
596.928000
 20
672.505000
 11
596.928000
 21
682.505000
  0
CIRCLE
  8
1
 62
7
  6
CONTINUOUS
 10
571.928000
 20
677.505000
 40
1.650000
  0
CIRCLE
  8
1
 62
7
  6
CONTINUOUS
 10
571.928000
 20
677.505000
 40
2.000000
  0
LINE
  8
1
 62
7
  6
DASHDOT
 10
571.928000
 20
672.505000
 11
571.928000
 21
682.505000
  0
CIRCLE
  8
1
 62
7
  6
CONTINUOUS
 10
546.928000
 20
677.505000
 40
1.650000
  0
CIRCLE
  8
1
 62
7
  6
CONTINUOUS
 10
546.928000
 20
677.505000
 40
2.000000
  0
LINE
  8
1
 62
7
  6
DASHDOT
 10
546.928000
 20
672.505000
 11
546.928000
 21
682.505000
  0
CIRCLE
  8
1
 62
7
  6
CONTINUOUS
 10
521.928000
 20
627.505000
 40
1.650000
  0
CIRCLE
  8
1
 62
7
  6
CONTINUOUS
 10
521.928000
 20
627.505000
 40
2.000000
  0
LINE
  8
1
 62
7
  6
DASHDOT
 10
526.928000
 20
627.505000
 11
516.928000
 21
627.505000
  0
CIRCLE
  8
1
 62
7
  6
CONTINUOUS
 10
521.928000
 20
652.505000
 40
1.650000
  0
CIRCLE
  8
1
 62
7
  6
CONTINUOUS
 10
521.928000
 20
652.505000
 40
2.000000
  0
LINE
  8
1
 62
7
  6
DASHDOT
 10
526.928000
 20
652.505000
 11
516.928000
 21
652.505000
  0
CIRCLE
  8
1
 62
7
  6
CONTINUOUS
 10
521.928000
 20
727.505000
 40
1.650000
  0
CIRCLE
  8
1
 62
7
  6
CONTINUOUS
 10
521.928000
 20
727.505000
 40
2.000000
  0
LINE
  8
1
 62
7
  6
DASHDOT
 10
526.928000
 20
727.505000
 11
516.928000
 21
727.505000
  0
CIRCLE
  8
1
 62
7
  6
CONTINUOUS
 10
521.928000
 20
702.505000
 40
1.650000
  0
CIRCLE
  8
1
 62
7
  6
CONTINUOUS
 10
521.928000
 20
702.505000
 40
2.000000
  0
LINE
  8
1
 62
7
  6
DASHDOT
 10
526.928000
 20
702.505000
 11
516.928000
 21
702.505000
  0
CIRCLE
  8
1
 62
7
  6
CONTINUOUS
 10
446.928000
 20
637.505000
 40
5.000000
  0
LINE
  8
1
 62
7
  6
DASHDOT
 10
452.928000
 20
637.505000
 11
440.928000
 21
637.505000
  0
LINE
  8
1
 62
7
  6
DASHDOT
 10
446.928000
 20
643.505000
 11
446.928000
 21
631.505000
  0
CIRCLE
  8
1
 62
7
  6
CONTINUOUS
 10
446.928000
 20
637.505000
 40
4.150000
  0
LINE
  8
1
 62
7
  6
CONTINUOUS
 10
444.928000
 20
637.505000
 11
445.928000
 21
635.772949
  0
LINE
  8
1
 62
7
  6
CONTINUOUS
 10
445.928000
 20
635.772949
 11
447.928000
 21
635.772949
  0
LINE
  8
1
 62
7
  6
CONTINUOUS
 10
447.928000
 20
635.772949
 11
448.928000
 21
637.505000
  0
LINE
  8
1
 62
7
  6
CONTINUOUS
 10
448.928000
 20
637.505000
 11
447.928000
 21
639.237051
  0
LINE
  8
1
 62
7
  6
CONTINUOUS
 10
447.928000
 20
639.237051
 11
445.928000
 21
639.237051
  0
LINE
  8
1
 62
7
  6
CONTINUOUS
 10
445.928000
 20
639.237051
 11
444.928000
 21
637.505000
  0
CIRCLE
  8
1
 62
7
  6
CONTINUOUS
 10
446.928000
 20
637.505000
 40
3.350000
  0
CIRCLE
  8
1
 62
7
  6
CONTINUOUS
 10
496.928000
 20
652.505000
 40
1.650000
  0
CIRCLE
  8
1
 62
7
  6
CONTINUOUS
 10
496.928000
 20
652.505000
 40
2.000000
  0
LINE
  8
1
 62
7
  6
DASHDOT
 10
491.928000
 20
652.505000
 11
501.928000
 21
652.505000
  0
LINE
  8
1
 62
7
  6
DASHDOT
 10
496.928000
 20
657.505000
 11
496.928000
 21
647.505000
  0
CIRCLE
  8
1
 62
7
  6
CONTINUOUS
 10
496.928000
 20
627.505000
 40
1.650000
  0
CIRCLE
  8
1
 62
7
  6
CONTINUOUS
 10
496.928000
 20
627.505000
 40
2.000000
  0
LINE
  8
1
 62
7
  6
DASHDOT
 10
491.928000
 20
627.505000
 11
501.928000
 21
627.505000
  0
LINE
  8
1
 62
7
  6
DASHDOT
 10
496.928000
 20
632.505000
 11
496.928000
 21
622.505000
  0
CIRCLE
  8
1
 62
7
  6
CONTINUOUS
 10
471.928000
 20
627.505000
 40
1.650000
  0
CIRCLE
  8
1
 62
7
  6
CONTINUOUS
 10
471.928000
 20
627.505000
 40
2.000000
  0
LINE
  8
1
 62
7
  6
DASHDOT
 10
466.928000
 20
627.505000
 11
476.928000
 21
627.505000
  0
LINE
  8
1
 62
7
  6
DASHDOT
 10
471.928000
 20
632.505000
 11
471.928000
 21
622.505000
  0
CIRCLE
  8
1
 62
7
  6
CONTINUOUS
 10
471.928000
 20
652.505000
 40
1.650000
  0
CIRCLE
  8
1
 62
7
  6
CONTINUOUS
 10
471.928000
 20
652.505000
 40
2.000000
  0
LINE
  8
1
 62
7
  6
DASHDOT
 10
466.928000
 20
652.505000
 11
476.928000
 21
652.505000
  0
LINE
  8
1
 62
7
  6
DASHDOT
 10
471.928000
 20
657.505000
 11
471.928000
 21
647.505000
  0
CIRCLE
  8
1
 62
7
  6
CONTINUOUS
 10
446.928000
 20
652.505000
 40
1.650000
  0
CIRCLE
  8
1
 62
7
  6
CONTINUOUS
 10
446.928000
 20
652.505000
 40
2.000000
  0
LINE
  8
1
 62
7
  6
DASHDOT
 10
441.928000
 20
652.505000
 11
451.928000
 21
652.505000
  0
LINE
  8
1
 62
7
  6
DASHDOT
 10
446.928000
 20
657.505000
 11
446.928000
 21
647.505000
  0
CIRCLE
  8
1
 62
7
  6
CONTINUOUS
 10
446.928000
 20
627.505000
 40
1.650000
  0
CIRCLE
  8
1
 62
7
  6
CONTINUOUS
 10
446.928000
 20
627.505000
 40
2.000000
  0
LINE
  8
1
 62
7
  6
DASHDOT
 10
441.928000
 20
627.505000
 11
451.928000
 21
627.505000
  0
LINE
  8
1
 62
7
  6
DASHDOT
 10
446.928000
 20
632.505000
 11
446.928000
 21
622.505000
  0
CIRCLE
  8
1
 62
7
  6
CONTINUOUS
 10
596.928000
 20
717.505000
 40
5.000000
  0
LINE
  8
1
 62
7
  6
DASHDOT
 10
590.928000
 20
717.505000
 11
602.928000
 21
717.505000
  0
LINE
  8
1
 62
7
  6
DASHDOT
 10
596.928000
 20
711.505000
 11
596.928000
 21
723.505000
  0
CIRCLE
  8
1
 62
7
  6
CONTINUOUS
 10
596.928000
 20
717.505000
 40
4.150000
  0
LINE
  8
1
 62
7
  6
CONTINUOUS
 10
598.928000
 20
717.505000
 11
597.928000
 21
719.237051
  0
LINE
  8
1
 62
7
  6
CONTINUOUS
 10
597.928000
 20
719.237051
 11
595.928000
 21
719.237051
  0
LINE
  8
1
 62
7
  6
CONTINUOUS
 10
595.928000
 20
719.237051
 11
594.928000
 21
717.505000
  0
LINE
  8
1
 62
7
  6
CONTINUOUS
 10
594.928000
 20
717.505000
 11
595.928000
 21
715.772949
  0
LINE
  8
1
 62
7
  6
CONTINUOUS
 10
595.928000
 20
715.772949
 11
597.928000
 21
715.772949
  0
LINE
  8
1
 62
7
  6
CONTINUOUS
 10
597.928000
 20
715.772949
 11
598.928000
 21
717.505000
  0
CIRCLE
  8
1
 62
7
  6
CONTINUOUS
 10
596.928000
 20
717.505000
 40
3.350000
  0
CIRCLE
  8
1
 62
7
  6
CONTINUOUS
 10
546.928000
 20
702.505000
 40
1.650000
  0
CIRCLE
  8
1
 62
7
  6
CONTINUOUS
 10
546.928000
 20
702.505000
 40
2.000000
  0
LINE
  8
1
 62
7
  6
DASHDOT
 10
551.928000
 20
702.505000
 11
541.928000
 21
702.505000
  0
LINE
  8
1
 62
7
  6
DASHDOT
 10
546.928000
 20
697.505000
 11
546.928000
 21
707.505000
  0
CIRCLE
  8
1
 62
7
  6
CONTINUOUS
 10
546.928000
 20
727.505000
 40
1.650000
  0
CIRCLE
  8
1
 62
7
  6
CONTINUOUS
 10
546.928000
 20
727.505000
 40
2.000000
  0
LINE
  8
1
 62
7
  6
DASHDOT
 10
551.928000
 20
727.505000
 11
541.928000
 21
727.505000
  0
LINE
  8
1
 62
7
  6
DASHDOT
 10
546.928000
 20
722.505000
 11
546.928000
 21
732.505000
  0
CIRCLE
  8
1
 62
7
  6
CONTINUOUS
 10
571.928000
 20
727.505000
 40
1.650000
  0
CIRCLE
  8
1
 62
7
  6
CONTINUOUS
 10
571.928000
 20
727.505000
 40
2.000000
  0
LINE
  8
1
 62
7
  6
DASHDOT
 10
576.928000
 20
727.505000
 11
566.928000
 21
727.505000
  0
LINE
  8
1
 62
7
  6
DASHDOT
 10
571.928000
 20
722.505000
 11
571.928000
 21
732.505000
  0
CIRCLE
  8
1
 62
7
  6
CONTINUOUS
 10
571.928000
 20
702.505000
 40
1.650000
  0
CIRCLE
  8
1
 62
7
  6
CONTINUOUS
 10
571.928000
 20
702.505000
 40
2.000000
  0
LINE
  8
1
 62
7
  6
DASHDOT
 10
576.928000
 20
702.505000
 11
566.928000
 21
702.505000
  0
LINE
  8
1
 62
7
  6
DASHDOT
 10
571.928000
 20
697.505000
 11
571.928000
 21
707.505000
  0
CIRCLE
  8
1
 62
7
  6
CONTINUOUS
 10
596.928000
 20
702.505000
 40
1.650000
  0
CIRCLE
  8
1
 62
7
  6
CONTINUOUS
 10
596.928000
 20
702.505000
 40
2.000000
  0
LINE
  8
1
 62
7
  6
DASHDOT
 10
601.928000
 20
702.505000
 11
591.928000
 21
702.505000
  0
LINE
  8
1
 62
7
  6
DASHDOT
 10
596.928000
 20
697.505000
 11
596.928000
 21
707.505000
  0
CIRCLE
  8
1
 62
7
  6
CONTINUOUS
 10
596.928000
 20
727.505000
 40
1.650000
  0
CIRCLE
  8
1
 62
7
  6
CONTINUOUS
 10
596.928000
 20
727.505000
 40
2.000000
  0
LINE
  8
1
 62
7
  6
DASHDOT
 10
601.928000
 20
727.505000
 11
591.928000
 21
727.505000
  0
LINE
  8
1
 62
7
  6
DASHDOT
 10
596.928000
 20
722.505000
 11
596.928000
 21
732.505000
  0
CIRCLE
  8
1
 62
7
  6
CONTINUOUS
 10
596.928000
 20
637.505000
 40
5.000000
  0
LINE
  8
1
 62
7
  6
DASHDOT
 10
590.928000
 20
637.505000
 11
602.928000
 21
637.505000
  0
LINE
  8
1
 62
7
  6
DASHDOT
 10
596.928000
 20
643.505000
 11
596.928000
 21
631.505000
  0
CIRCLE
  8
1
 62
7
  6
CONTINUOUS
 10
596.928000
 20
637.505000
 40
4.150000
  0
LINE
  8
1
 62
7
  6
CONTINUOUS
 10
598.928000
 20
637.505000
 11
597.928000
 21
635.772949
  0
LINE
  8
1
 62
7
  6
CONTINUOUS
 10
597.928000
 20
635.772949
 11
595.928000
 21
635.772949
  0
LINE
  8
1
 62
7
  6
CONTINUOUS
 10
595.928000
 20
635.772949
 11
594.928000
 21
637.505000
  0
LINE
  8
1
 62
7
  6
CONTINUOUS
 10
594.928000
 20
637.505000
 11
595.928000
 21
639.237051
  0
LINE
  8
1
 62
7
  6
CONTINUOUS
 10
595.928000
 20
639.237051
 11
597.928000
 21
639.237051
  0
LINE
  8
1
 62
7
  6
CONTINUOUS
 10
597.928000
 20
639.237051
 11
598.928000
 21
637.505000
  0
CIRCLE
  8
1
 62
7
  6
CONTINUOUS
 10
596.928000
 20
637.505000
 40
3.350000
  0
CIRCLE
  8
1
 62
7
  6
CONTINUOUS
 10
546.928000
 20
652.505000
 40
1.650000
  0
CIRCLE
  8
1
 62
7
  6
CONTINUOUS
 10
546.928000
 20
652.505000
 40
2.000000
  0
LINE
  8
1
 62
7
  6
DASHDOT
 10
551.928000
 20
652.505000
 11
541.928000
 21
652.505000
  0
LINE
  8
1
 62
7
  6
DASHDOT
 10
546.928000
 20
657.505000
 11
546.928000
 21
647.505000
  0
CIRCLE
  8
1
 62
7
  6
CONTINUOUS
 10
546.928000
 20
627.505000
 40
1.650000
  0
CIRCLE
  8
1
 62
7
  6
CONTINUOUS
 10
546.928000
 20
627.505000
 40
2.000000
  0
LINE
  8
1
 62
7
  6
DASHDOT
 10
551.928000
 20
627.505000
 11
541.928000
 21
627.505000
  0
LINE
  8
1
 62
7
  6
DASHDOT
 10
546.928000
 20
632.505000
 11
546.928000
 21
622.505000
  0
CIRCLE
  8
1
 62
7
  6
CONTINUOUS
 10
571.928000
 20
627.505000
 40
1.650000
  0
CIRCLE
  8
1
 62
7
  6
CONTINUOUS
 10
571.928000
 20
627.505000
 40
2.000000
  0
LINE
  8
1
 62
7
  6
DASHDOT
 10
576.928000
 20
627.505000
 11
566.928000
 21
627.505000
  0
LINE
  8
1
 62
7
  6
DASHDOT
 10
571.928000
 20
632.505000
 11
571.928000
 21
622.505000
  0
CIRCLE
  8
1
 62
7
  6
CONTINUOUS
 10
571.928000
 20
652.505000
 40
1.650000
  0
CIRCLE
  8
1
 62
7
  6
CONTINUOUS
 10
571.928000
 20
652.505000
 40
2.000000
  0
LINE
  8
1
 62
7
  6
DASHDOT
 10
576.928000
 20
652.505000
 11
566.928000
 21
652.505000
  0
LINE
  8
1
 62
7
  6
DASHDOT
 10
571.928000
 20
657.505000
 11
571.928000
 21
647.505000
  0
CIRCLE
  8
1
 62
7
  6
CONTINUOUS
 10
596.928000
 20
652.505000
 40
1.650000
  0
CIRCLE
  8
1
 62
7
  6
CONTINUOUS
 10
596.928000
 20
652.505000
 40
2.000000
  0
LINE
  8
1
 62
7
  6
DASHDOT
 10
601.928000
 20
652.505000
 11
591.928000
 21
652.505000
  0
LINE
  8
1
 62
7
  6
DASHDOT
 10
596.928000
 20
657.505000
 11
596.928000
 21
647.505000
  0
CIRCLE
  8
1
 62
7
  6
CONTINUOUS
 10
596.928000
 20
627.505000
 40
1.650000
  0
CIRCLE
  8
1
 62
7
  6
CONTINUOUS
 10
596.928000
 20
627.505000
 40
2.000000
  0
LINE
  8
1
 62
7
  6
DASHDOT
 10
601.928000
 20
627.505000
 11
591.928000
 21
627.505000
  0
LINE
  8
1
 62
7
  6
DASHDOT
 10
596.928000
 20
632.505000
 11
596.928000
 21
622.505000
  0
CIRCLE
  8
1
 62
7
  6
CONTINUOUS
 10
521.928000
 20
677.505000
 40
2.000000
  0
CIRCLE
  8
1
 62
7
  6
CONTINUOUS
 10
521.928000
 20
677.505000
 40
1.650000
  0
LINE
  8
1
 62
7
  6
CONTINUOUS
 10
630.928000
 20
577.505000
 11
631.928000
 21
578.505000
  0
LINE
  8
1
 62
7
  6
CONTINUOUS
 10
412.928000
 20
577.505000
 11
630.928000
 21
577.505000
  0
LINE
  8
1
 62
7
  6
CONTINUOUS
 10
411.928000
 20
578.505000
 11
412.928000
 21
577.505000
  0
CIRCLE
  8
1
 62
7
  6
CONTINUOUS
 10
521.928000
 20
565.505000
 40
4.450790
  0
CIRCLE
  8
1
 62
7
  6
CONTINUOUS
 10
521.928000
 20
565.505000
 40
5.250429
  0
ARC
  8
1
 62
7
  6
CONTINUOUS
 10
548.570431
 20
541.610728
 40
3.000000
 50
-86.152023
 51
-3.000000
  0
ARC
  8
1
 62
7
  6
CONTINUOUS
 10
551.678000
 20
548.855000
 40
0.500000
 50
-90.000000
 51
0.000000
  0
ARC
  8
1
 62
7
  6
CONTINUOUS
 10
495.285569
 20
541.610728
 40
3.000000
 50
-177.000000
 51
-93.847977
  0
ARC
  8
1
 62
7
  6
CONTINUOUS
 10
521.928000
 20
937.715741
 40
400.000000
 50
-93.847977
 51
-88.237402
  0
ARC
  8
1
 62
7
  6
CONTINUOUS
 10
521.928000
 20
937.715741
 40
400.000000
 50
-88.237402
 51
-86.152023
  0
ARC
  8
1
 62
7
  6
CONTINUOUS
 10
546.028000
 20
571.305000
 40
1.000000
 50
0.000000
 51
90.000000
  0
ARC
  8
1
 62
7
  6
CONTINUOUS
 10
497.828000
 20
571.305000
 40
1.000000
 50
90.000000
 51
180.000000
  0
LINE
  8
1
 62
7
  6
CONTINUOUS
 10
547.028000
 20
571.305000
 11
547.028000
 21
570.805000
  0
LINE
  8
1
 62
7
  6
CONTINUOUS
 10
496.828000
 20
570.805000
 11
496.828000
 21
571.305000
  0
LINE
  8
1
 62
7
  6
CONTINUOUS
 10
546.028000
 20
572.305000
 11
497.828000
 21
572.305000
  0
LINE
  8
1
 62
7
  6
CONTINUOUS
 10
491.928000
 20
553.055000
 11
552.178000
 21
553.055000
  0
LINE
  8
1
 62
7
  6
CONTINUOUS
 10
516.226891
 20
548.355000
 11
516.226891
 21
553.055000
  0
LINE
  8
1
 62
7
  6
CONTINUOUS
 10
517.211665
 20
548.355000
 11
517.211665
 21
553.055000
  0
LINE
  8
1
 62
7
  6
CONTINUOUS
 10
518.815611
 20
548.355000
 11
518.815611
 21
553.055000
  0
LINE
  8
1
 62
7
  6
CONTINUOUS
 10
519.811771
 20
548.355000
 11
519.811771
 21
553.055000
  0
LINE
  8
1
 62
7
  6
CONTINUOUS
 10
527.629109
 20
548.355000
 11
527.629109
 21
553.055000
  0
LINE
  8
1
 62
7
  6
CONTINUOUS
 10
526.644335
 20
548.355000
 11
526.644335
 21
553.055000
  0
LINE
  8
1
 62
7
  6
CONTINUOUS
 10
525.040389
 20
548.355000
 11
525.040389
 21
553.055000
  0
LINE
  8
1
 62
7
  6
CONTINUOUS
 10
523.821569
 20
548.355000
 11
523.821569
 21
553.055000
  0
LINE
  8
1
 62
7
  6
CONTINUOUS
 10
521.428017
 20
548.355000
 11
521.428017
 21
553.055000
  0
LINE
  8
1
 62
7
  6
CONTINUOUS
 10
491.928000
 20
548.355000
 11
551.928000
 21
548.355000
  0
LINE
  8
1
 62
7
  6
CONTINUOUS
 10
522.427983
 20
548.355000
 11
522.427983
 21
553.055000
  0
LINE
  8
1
 62
7
  6
CONTINUOUS
 10
495.957225
 20
553.055000
 11
495.957225
 21
548.355000
  0
LINE
  8
1
 62
7
  6
CONTINUOUS
 10
494.728612
 20
553.055000
 11
494.728612
 21
548.355000
  0
LINE
  8
1
 62
7
  6
CONTINUOUS
 10
493.710375
 20
553.055000
 11
493.710375
 21
548.355000
  0
LINE
  8
1
 62
7
  6
CONTINUOUS
 10
492.910262
 20
553.055000
 11
492.910262
 21
548.355000
  0
LINE
  8
1
 62
7
  6
CONTINUOUS
 10
552.178000
 20
548.855000
 11
552.178000
 21
553.055000
  0
LINE
  8
1
 62
7
  6
CONTINUOUS
 10
492.728000
 20
553.855000
 11
551.128000
 21
553.855000
  0
LINE
  8
1
 62
7
  6
CONTINUOUS
 10
491.928000
 20
553.055000
 11
491.928000
 21
548.355000
  0
LINE
  8
1
 62
7
  6
CONTINUOUS
 10
491.928000
 20
553.055000
 11
492.728000
 21
553.855000
  0
LINE
  8
1
 62
7
  6
CONTINUOUS
 10
551.928000
 20
548.355000
 11
551.566319
 21
541.453721
  0
LINE
  8
1
 62
7
  6
CONTINUOUS
 10
492.289681
 20
541.453721
 11
491.928000
 21
548.355000
  0
LINE
  8
1
 62
7
  6
CONTINUOUS
 10
551.128000
 20
553.855000
 11
551.928000
 21
553.055000
  0
LINE
  8
1
 62
7
  6
CONTINUOUS
 10
491.794062
 20
553.055000
 11
491.794062
 21
548.534701
  0
LINE
  8
1
 62
7
  6
CONTINUOUS
 10
491.678000
 20
553.055000
 11
491.678000
 21
548.855000
  0
LINE
  8
1
 62
7
  6
CONTINUOUS
 10
543.928000
 20
569.805000
 11
543.928000
 21
556.805000
  0
LINE
  8
1
 62
7
  6
CONTINUOUS
 10
543.928000
 20
556.805000
 11
499.928000
 21
556.805000
  0
LINE
  8
1
 62
7
  6
CONTINUOUS
 10
499.928000
 20
556.805000
 11
499.928000
 21
569.805000
  0
LINE
  8
1
 62
7
  6
CONTINUOUS
 10
499.928000
 20
569.805000
 11
543.928000
 21
569.805000
  0
LINE
  8
1
 62
7
  6
CONTINUOUS
 10
548.928000
 20
570.805000
 11
548.928000
 21
553.855000
  0
LINE
  8
1
 62
7
  6
CONTINUOUS
 10
494.928000
 20
553.855000
 11
494.928000
 21
570.805000
  0
LINE
  8
1
 62
7
  6
CONTINUOUS
 10
494.928000
 20
570.805000
 11
548.928000
 21
570.805000
  0
LINE
  8
1
 62
7
  6
CONTINUOUS
 10
511.928000
 20
577.505000
 11
511.928000
 21
572.305000
  0
LINE
  8
1
 62
7
  6
CONTINUOUS
 10
531.928000
 20
572.305000
 11
531.928000
 21
577.505000
  0
LINE
  8
1
 62
7
  6
CONTINUOUS
 10
494.928000
 20
577.505000
 11
494.928000
 21
570.805000
  0
LINE
  8
1
 62
7
  6
CONTINUOUS
 10
630.928000
 20
777.505000
 11
631.928000
 21
776.505000
  0
LINE
  8
1
 62
7
  6
CONTINUOUS
 10
630.928000
 20
777.505000
 11
412.928000
 21
777.505000
  0
LINE
  8
1
 62
7
  6
CONTINUOUS
 10
412.928000
 20
777.505000
 11
411.928000
 21
776.505000
  0
LINE
  8
1
 62
7
  6
DASHDOT
 10
521.928000
 20
782.505000
 11
521.928000
 21
572.505000
  0
LINE
  8
1
 62
7
  6
CONTINUOUS
 10
631.928000
 20
776.505000
 11
631.928000
 21
578.505000
  0
LINE
  8
1
 62
7
  6
CONTINUOUS
 10
411.928000
 20
776.505000
 11
411.928000
 21
578.505000
  0
LINE
  8
1
 62
7
  6
DASHDOT
 10
707.457596
 20
177.699000
 11
372.398596
 21
177.699000
  0
LINE
  8
1
 62
7
  6
CONTINUOUS
 10
378.398596
 20
237.699000
 11
377.398596
 21
236.699000
  0
LINE
  8
1
 62
7
  6
CONTINUOUS
 10
397.398596
 20
236.699000
 11
396.398596
 21
237.699000
  0
LINE
  8
1
 62
7
  6
CONTINUOUS
 10
377.398596
 20
236.699000
 11
397.398596
 21
236.699000
  0
LINE
  8
1
 62
7
  6
CONTINUOUS
 10
378.398596
 20
237.699000
 11
378.398596
 21
241.699000
  0
LINE
  8
1
 62
7
  6
CONTINUOUS
 10
379.898596
 20
241.949000
 11
379.898596
 21
241.699000
  0
LINE
  8
1
 62
7
  6
CONTINUOUS
 10
394.898596
 20
241.949000
 11
394.898596
 21
241.699000
  0
LINE
  8
1
 62
7
  6
CONTINUOUS
 10
378.898596
 20
245.949000
 11
378.898596
 21
246.949000
  0
LINE
  8
1
 62
7
  6
CONTINUOUS
 10
378.898596
 20
246.949000
 11
395.898596
 21
246.949000
  0
LINE
  8
1
 62
7
  6
CONTINUOUS
 10
395.898596
 20
246.949000
 11
395.898596
 21
245.949000
  0
LINE
  8
1
 62
7
  6
CONTINUOUS
 10
378.898596
 20
246.949000
 11
378.898596
 21
248.949000
  0
LINE
  8
1
 62
7
  6
CONTINUOUS
 10
378.898596
 20
248.949000
 11
379.898596
 21
249.949000
  0
LINE
  8
1
 62
7
  6
CONTINUOUS
 10
395.898596
 20
248.949000
 11
395.898596
 21
246.949000
  0
LINE
  8
1
 62
7
  6
CONTINUOUS
 10
379.898596
 20
249.949000
 11
394.898596
 21
249.949000
  0
LINE
  8
1
 62
7
  6
CONTINUOUS
 10
395.898596
 20
248.949000
 11
394.898596
 21
249.949000
  0
LINE
  8
1
 62
7
  6
CONTINUOUS
 10
378.898596
 20
248.949000
 11
395.898596
 21
248.949000
  0
LINE
  8
1
 62
7
  6
CONTINUOUS
 10
378.398596
 20
117.699000
 11
377.398596
 21
118.699000
  0
LINE
  8
1
 62
7
  6
CONTINUOUS
 10
397.398596
 20
118.699000
 11
396.398596
 21
117.699000
  0
LINE
  8
1
 62
7
  6
CONTINUOUS
 10
377.398596
 20
118.699000
 11
397.398596
 21
118.699000
  0
LINE
  8
1
 62
7
  6
CONTINUOUS
 10
378.398596
 20
117.699000
 11
378.398596
 21
113.699000
  0
LINE
  8
1
 62
7
  6
CONTINUOUS
 10
379.898596
 20
113.449000
 11
379.898596
 21
113.699000
  0
LINE
  8
1
 62
7
  6
CONTINUOUS
 10
394.898596
 20
113.449000
 11
394.898596
 21
113.699000
  0
LINE
  8
1
 62
7
  6
CONTINUOUS
 10
378.898596
 20
109.449000
 11
378.898596
 21
108.449000
  0
LINE
  8
1
 62
7
  6
CONTINUOUS
 10
378.898596
 20
108.449000
 11
395.898596
 21
108.449000
  0
LINE
  8
1
 62
7
  6
CONTINUOUS
 10
395.898596
 20
108.449000
 11
395.898596
 21
109.449000
  0
LINE
  8
1
 62
7
  6
CONTINUOUS
 10
378.898596
 20
108.449000
 11
378.898596
 21
106.449000
  0
LINE
  8
1
 62
7
  6
CONTINUOUS
 10
378.898596
 20
106.449000
 11
379.898596
 21
105.449000
  0
LINE
  8
1
 62
7
  6
CONTINUOUS
 10
395.898596
 20
106.449000
 11
395.898596
 21
108.449000
  0
LINE
  8
1
 62
7
  6
CONTINUOUS
 10
379.898596
 20
105.449000
 11
394.898596
 21
105.449000
  0
LINE
  8
1
 62
7
  6
CONTINUOUS
 10
395.898596
 20
106.449000
 11
394.898596
 21
105.449000
  0
LINE
  8
1
 62
7
  6
CONTINUOUS
 10
378.898596
 20
106.449000
 11
395.898596
 21
106.449000
  0
LINE
  8
1
 62
7
  6
CONTINUOUS
 10
378.398596
 20
113.449000
 11
378.398596
 21
109.449000
  0
LINE
  8
1
 62
7
  6
CONTINUOUS
 10
378.398596
 20
241.949000
 11
378.398596
 21
245.949000
  0
LINE
  8
1
 62
7
  6
CONTINUOUS
 10
378.398596
 20
245.949000
 11
411.928000
 21
245.949000
  0
LINE
  8
1
 62
7
  6
CONTINUOUS
 10
378.398596
 20
241.699000
 11
411.928000
 21
241.699000
  0
LINE
  8
1
 62
7
  6
CONTINUOUS
 10
378.398596
 20
241.949000
 11
411.928000
 21
241.949000
  0
LINE
  8
1
 62
7
  6
CONTINUOUS
 10
378.398596
 20
237.699000
 11
411.928000
 21
237.699000
  0
LINE
  8
1
 62
7
  6
CONTINUOUS
 10
378.398596
 20
109.449000
 11
411.928000
 21
109.449000
  0
LINE
  8
1
 62
7
  6
CONTINUOUS
 10
378.398596
 20
113.699000
 11
411.928000
 21
113.699000
  0
LINE
  8
1
 62
7
  6
CONTINUOUS
 10
378.398596
 20
113.449000
 11
411.928000
 21
113.449000
  0
LINE
  8
1
 62
7
  6
CONTINUOUS
 10
378.398596
 20
117.699000
 11
411.928000
 21
117.699000
  0
LINE
  8
1
 62
7
  6
DASHDOT
 10
387.398596
 20
252.949000
 11
387.398596
 21
102.449000
  0
LINE
  8
1
 62
7
  6
DASHDOT
 10
414.928000
 20
202.699000
 11
374.398596
 21
202.699000
  0
LINE
  8
1
 62
7
  6
DASHDOT
 10
414.928000
 20
152.699000
 11
374.398596
 21
152.699000
  0
LINE
  8
1
 62
7
  6
CONTINUOUS
 10
397.398596
 20
147.699000
 11
411.928000
 21
147.699000
  0
LINE
  8
1
 62
7
  6
CONTINUOUS
 10
397.398596
 20
157.699000
 11
411.928000
 21
157.699000
  0
LINE
  8
1
 62
7
  6
CONTINUOUS
 10
397.398596
 20
207.699000
 11
411.928000
 21
207.699000
  0
LINE
  8
1
 62
7
  6
CONTINUOUS
 10
397.398596
 20
197.699000
 11
411.928000
 21
197.699000
  0
ARC
  8
1
 62
7
  6
CONTINUOUS
 10
377.359807
 20
207.110986
 40
0.589292
 50
20.607730
 51
86.225897
  0
ARC
  8
1
 62
7
  6
CONTINUOUS
 10
374.906613
 20
205.484096
 40
3.520420
 50
12.308026
 51
31.402463
  0
ARC
  8
1
 62
7
  6
CONTINUOUS
 10
368.194097
 20
203.579526
 40
10.493456
 50
5.648882
 51
14.656032
  0
ARC
  8
1
 62
7
  6
CONTINUOUS
 10
361.535691
 20
202.741366
 40
17.202956
 50
-0.141104
 51
6.244033
  0
ARC
  8
1
 62
7
  6
CONTINUOUS
 10
360.901222
 20
202.690457
 40
17.837375
 50
-6.130372
 51
0.027443
  0
ARC
  8
1
 62
7
  6
CONTINUOUS
 10
366.894738
 20
202.051153
 40
11.809862
 50
-14.153164
 51
-6.151749
  0
ARC
  8
1
 62
7
  6
CONTINUOUS
 10
374.034828
 20
200.263569
 40
4.449432
 50
-29.395909
 51
-14.314580
  0
ARC
  8
1
 62
7
  6
CONTINUOUS
 10
377.225835
 20
198.467518
 40
0.787697
 50
-77.330689
 51
-29.502939
  0
ARC
  8
1
 62
7
  6
CONTINUOUS
 10
397.437384
 20
207.110986
 40
0.589292
 50
93.774103
 51
159.392270
  0
ARC
  8
1
 62
7
  6
CONTINUOUS
 10
399.890578
 20
205.484096
 40
3.520420
 50
148.597537
 51
167.691974
  0
ARC
  8
1
 62
7
  6
CONTINUOUS
 10
406.603094
 20
203.579526
 40
10.493456
 50
165.343968
 51
174.351118
  0
ARC
  8
1
 62
7
  6
CONTINUOUS
 10
413.261500
 20
202.741366
 40
17.202956
 50
173.755967
 51
-179.858896
  0
ARC
  8
1
 62
7
  6
CONTINUOUS
 10
413.895969
 20
202.690457
 40
17.837375
 50
179.972557
 51
-173.869628
  0
ARC
  8
1
 62
7
  6
CONTINUOUS
 10
407.902453
 20
202.051153
 40
11.809862
 50
-173.848251
 51
-165.846836
  0
ARC
  8
1
 62
7
  6
CONTINUOUS
 10
400.762363
 20
200.263569
 40
4.449432
 50
-165.685420
 51
-150.604091
  0
ARC
  8
1
 62
7
  6
CONTINUOUS
 10
397.571356
 20
198.467518
 40
0.787697
 50
-150.497061
 51
-102.669311
  0
ARC
  8
1
 62
7
  6
CONTINUOUS
 10
397.437384
 20
148.287014
 40
0.589292
 50
-159.392270
 51
-93.774103
  0
ARC
  8
1
 62
7
  6
CONTINUOUS
 10
399.890578
 20
149.913904
 40
3.520420
 50
-167.691974
 51
-148.597537
  0
ARC
  8
1
 62
7
  6
CONTINUOUS
 10
406.603094
 20
151.818474
 40
10.493456
 50
-174.351118
 51
-165.343968
  0
ARC
  8
1
 62
7
  6
CONTINUOUS
 10
413.261500
 20
152.656634
 40
17.202956
 50
179.858896
 51
-173.755967
  0
ARC
  8
1
 62
7
  6
CONTINUOUS
 10
413.895969
 20
152.707543
 40
17.837375
 50
173.869628
 51
-179.972557
  0
ARC
  8
1
 62
7
  6
CONTINUOUS
 10
407.902453
 20
153.346847
 40
11.809862
 50
165.846836
 51
173.848251
  0
ARC
  8
1
 62
7
  6
CONTINUOUS
 10
400.762363
 20
155.134431
 40
4.449432
 50
150.604091
 51
165.685420
  0
ARC
  8
1
 62
7
  6
CONTINUOUS
 10
397.571356
 20
156.930482
 40
0.787697
 50
102.669311
 51
150.497061
  0
LINE
  8
1
 62
7
  6
CONTINUOUS
 10
397.398596
 20
147.699000
 11
397.398596
 21
118.699000
  0
LINE
  8
1
 62
7
  6
CONTINUOUS
 10
397.398596
 20
197.699000
 11
397.398596
 21
157.699000
  0
LINE
  8
1
 62
7
  6
CONTINUOUS
 10
397.398596
 20
236.699000
 11
397.398596
 21
207.699000
  0
LINE
  8
1
 62
7
  6
CONTINUOUS
 10
377.398596
 20
207.699000
 11
377.398596
 21
236.699000
  0
LINE
  8
1
 62
7
  6
CONTINUOUS
 10
377.398596
 20
198.199000
 11
377.398596
 21
207.199000
  0
LINE
  8
1
 62
7
  6
CONTINUOUS
 10
377.398596
 20
198.199000
 11
377.736760
 21
197.860835
  0
LINE
  8
1
 62
7
  6
CONTINUOUS
 10
377.736760
 20
207.537165
 11
377.398596
 21
207.199000
  0
LINE
  8
1
 62
7
  6
CONTINUOUS
 10
377.898596
 20
198.060113
 11
377.898596
 21
207.337887
  0
ARC
  8
1
 62
7
  6
CONTINUOUS
 10
377.359807
 20
148.287014
 40
0.589292
 50
-86.225897
 51
-20.607730
  0
ARC
  8
1
 62
7
  6
CONTINUOUS
 10
374.906613
 20
149.913904
 40
3.520420
 50
-31.402463
 51
-12.308026
  0
ARC
  8
1
 62
7
  6
CONTINUOUS
 10
368.194097
 20
151.818474
 40
10.493456
 50
-14.656032
 51
-5.648882
  0
ARC
  8
1
 62
7
  6
CONTINUOUS
 10
361.535691
 20
152.656634
 40
17.202956
 50
-6.244033
 51
0.141104
  0
ARC
  8
1
 62
7
  6
CONTINUOUS
 10
360.901222
 20
152.707543
 40
17.837375
 50
-0.027443
 51
6.130372
  0
ARC
  8
1
 62
7
  6
CONTINUOUS
 10
366.894738
 20
153.346847
 40
11.809862
 50
6.151749
 51
14.153164
  0
ARC
  8
1
 62
7
  6
CONTINUOUS
 10
374.034828
 20
155.134431
 40
4.449432
 50
14.314580
 51
29.395909
  0
ARC
  8
1
 62
7
  6
CONTINUOUS
 10
377.225835
 20
156.930482
 40
0.787697
 50
29.502939
 51
77.330689
  0
LINE
  8
1
 62
7
  6
CONTINUOUS
 10
377.398596
 20
157.199000
 11
377.398596
 21
148.199000
  0
LINE
  8
1
 62
7
  6
CONTINUOUS
 10
377.398596
 20
157.199000
 11
377.736760
 21
157.537165
  0
LINE
  8
1
 62
7
  6
CONTINUOUS
 10
377.736760
 20
147.860835
 11
377.398596
 21
148.199000
  0
LINE
  8
1
 62
7
  6
CONTINUOUS
 10
377.898596
 20
157.337887
 11
377.898596
 21
148.060113
  0
LINE
  8
1
 62
7
  6
CONTINUOUS
 10
377.398596
 20
157.699000
 11
377.398596
 21
197.699000
  0
LINE
  8
1
 62
7
  6
CONTINUOUS
 10
377.398596
 20
118.699000
 11
377.398596
 21
147.699000
  0
LINE
  8
1
 62
7
  6
CONTINUOUS
 10
665.457404
 20
237.699000
 11
666.457404
 21
236.699000
  0
LINE
  8
1
 62
7
  6
CONTINUOUS
 10
646.457404
 20
236.699000
 11
647.457404
 21
237.699000
  0
LINE
  8
1
 62
7
  6
CONTINUOUS
 10
666.457404
 20
236.699000
 11
646.457404
 21
236.699000
  0
LINE
  8
1
 62
7
  6
CONTINUOUS
 10
665.457404
 20
237.699000
 11
665.457404
 21
241.699000
  0
LINE
  8
1
 62
7
  6
CONTINUOUS
 10
663.957404
 20
241.949000
 11
663.957404
 21
241.699000
  0
LINE
  8
1
 62
7
  6
CONTINUOUS
 10
648.957404
 20
241.949000
 11
648.957404
 21
241.699000
  0
LINE
  8
1
 62
7
  6
CONTINUOUS
 10
664.957404
 20
245.949000
 11
664.957404
 21
246.949000
  0
LINE
  8
1
 62
7
  6
CONTINUOUS
 10
664.957404
 20
246.949000
 11
647.957404
 21
246.949000
  0
LINE
  8
1
 62
7
  6
CONTINUOUS
 10
647.957404
 20
246.949000
 11
647.957404
 21
245.949000
  0
LINE
  8
1
 62
7
  6
CONTINUOUS
 10
664.957404
 20
246.949000
 11
664.957404
 21
248.949000
  0
LINE
  8
1
 62
7
  6
CONTINUOUS
 10
664.957404
 20
248.949000
 11
663.957404
 21
249.949000
  0
LINE
  8
1
 62
7
  6
CONTINUOUS
 10
647.957404
 20
248.949000
 11
647.957404
 21
246.949000
  0
LINE
  8
1
 62
7
  6
CONTINUOUS
 10
663.957404
 20
249.949000
 11
648.957404
 21
249.949000
  0
LINE
  8
1
 62
7
  6
CONTINUOUS
 10
647.957404
 20
248.949000
 11
648.957404
 21
249.949000
  0
LINE
  8
1
 62
7
  6
CONTINUOUS
 10
664.957404
 20
248.949000
 11
647.957404
 21
248.949000
  0
LINE
  8
1
 62
7
  6
CONTINUOUS
 10
665.457404
 20
117.699000
 11
666.457404
 21
118.699000
  0
LINE
  8
1
 62
7
  6
CONTINUOUS
 10
646.457404
 20
118.699000
 11
647.457404
 21
117.699000
  0
LINE
  8
1
 62
7
  6
CONTINUOUS
 10
666.457404
 20
118.699000
 11
646.457404
 21
118.699000
  0
LINE
  8
1
 62
7
  6
CONTINUOUS
 10
665.457404
 20
117.699000
 11
665.457404
 21
113.699000
  0
LINE
  8
1
 62
7
  6
CONTINUOUS
 10
663.957404
 20
113.449000
 11
663.957404
 21
113.699000
  0
LINE
  8
1
 62
7
  6
CONTINUOUS
 10
648.957404
 20
113.449000
 11
648.957404
 21
113.699000
  0
LINE
  8
1
 62
7
  6
CONTINUOUS
 10
664.957404
 20
109.449000
 11
664.957404
 21
108.449000
  0
LINE
  8
1
 62
7
  6
CONTINUOUS
 10
664.957404
 20
108.449000
 11
647.957404
 21
108.449000
  0
LINE
  8
1
 62
7
  6
CONTINUOUS
 10
647.957404
 20
108.449000
 11
647.957404
 21
109.449000
  0
LINE
  8
1
 62
7
  6
CONTINUOUS
 10
664.957404
 20
108.449000
 11
664.957404
 21
106.449000
  0
LINE
  8
1
 62
7
  6
CONTINUOUS
 10
664.957404
 20
106.449000
 11
663.957404
 21
105.449000
  0
LINE
  8
1
 62
7
  6
CONTINUOUS
 10
647.957404
 20
106.449000
 11
647.957404
 21
108.449000
  0
LINE
  8
1
 62
7
  6
CONTINUOUS
 10
663.957404
 20
105.449000
 11
648.957404
 21
105.449000
  0
LINE
  8
1
 62
7
  6
CONTINUOUS
 10
647.957404
 20
106.449000
 11
648.957404
 21
105.449000
  0
LINE
  8
1
 62
7
  6
CONTINUOUS
 10
664.957404
 20
106.449000
 11
647.957404
 21
106.449000
  0
LINE
  8
1
 62
7
  6
CONTINUOUS
 10
665.457404
 20
113.449000
 11
665.457404
 21
109.449000
  0
LINE
  8
1
 62
7
  6
CONTINUOUS
 10
665.457404
 20
241.949000
 11
665.457404
 21
245.949000
  0
LINE
  8
1
 62
7
  6
CONTINUOUS
 10
665.457404
 20
245.949000
 11
631.928000
 21
245.949000
  0
LINE
  8
1
 62
7
  6
CONTINUOUS
 10
665.457404
 20
241.699000
 11
631.928000
 21
241.699000
  0
LINE
  8
1
 62
7
  6
CONTINUOUS
 10
665.457404
 20
241.949000
 11
631.928000
 21
241.949000
  0
LINE
  8
1
 62
7
  6
CONTINUOUS
 10
665.457404
 20
237.699000
 11
631.928000
 21
237.699000
  0
LINE
  8
1
 62
7
  6
CONTINUOUS
 10
665.457404
 20
109.449000
 11
631.928000
 21
109.449000
  0
LINE
  8
1
 62
7
  6
CONTINUOUS
 10
665.457404
 20
113.699000
 11
631.928000
 21
113.699000
  0
LINE
  8
1
 62
7
  6
CONTINUOUS
 10
665.457404
 20
113.449000
 11
631.928000
 21
113.449000
  0
LINE
  8
1
 62
7
  6
CONTINUOUS
 10
665.457404
 20
117.699000
 11
631.928000
 21
117.699000
  0
LINE
  8
1
 62
7
  6
DASHDOT
 10
628.928000
 20
137.699000
 11
669.457404
 21
137.699000
  0
LINE
  8
1
 62
7
  6
CONTINUOUS
 10
646.457404
 20
132.699000
 11
631.928000
 21
132.699000
  0
LINE
  8
1
 62
7
  6
CONTINUOUS
 10
646.457404
 20
142.699000
 11
631.928000
 21
142.699000
  0
ARC
  8
1
 62
7
  6
CONTINUOUS
 10
646.418616
 20
133.287014
 40
0.589292
 50
-86.225897
 51
-20.607730
  0
ARC
  8
1
 62
7
  6
CONTINUOUS
 10
643.965422
 20
134.913904
 40
3.520420
 50
-31.402463
 51
-12.308026
  0
ARC
  8
1
 62
7
  6
CONTINUOUS
 10
637.252906
 20
136.818474
 40
10.493456
 50
-14.656032
 51
-5.648882
  0
ARC
  8
1
 62
7
  6
CONTINUOUS
 10
630.594500
 20
137.656634
 40
17.202956
 50
-6.244033
 51
0.141104
  0
ARC
  8
1
 62
7
  6
CONTINUOUS
 10
629.960031
 20
137.707543
 40
17.837375
 50
-0.027443
 51
6.130372
  0
ARC
  8
1
 62
7
  6
CONTINUOUS
 10
635.953547
 20
138.346847
 40
11.809862
 50
6.151749
 51
14.153164
  0
ARC
  8
1
 62
7
  6
CONTINUOUS
 10
643.093637
 20
140.134431
 40
4.449432
 50
14.314580
 51
29.395909
  0
ARC
  8
1
 62
7
  6
CONTINUOUS
 10
646.284644
 20
141.930482
 40
0.787697
 50
29.502939
 51
77.330689
  0
LINE
  8
1
 62
7
  6
CONTINUOUS
 10
646.457404
 20
132.699000
 11
646.457404
 21
118.699000
  0
ARC
  8
1
 62
7
  6
CONTINUOUS
 10
666.496193
 20
133.287014
 40
0.589292
 50
-159.392270
 51
-93.774103
  0
ARC
  8
1
 62
7
  6
CONTINUOUS
 10
668.949387
 20
134.913904
 40
3.520420
 50
-167.691974
 51
-148.597537
  0
ARC
  8
1
 62
7
  6
CONTINUOUS
 10
675.661903
 20
136.818474
 40
10.493456
 50
-174.351118
 51
-165.343968
  0
ARC
  8
1
 62
7
  6
CONTINUOUS
 10
682.320309
 20
137.656634
 40
17.202956
 50
179.858896
 51
-173.755967
  0
ARC
  8
1
 62
7
  6
CONTINUOUS
 10
682.954778
 20
137.707543
 40
17.837375
 50
173.869628
 51
-179.972557
  0
ARC
  8
1
 62
7
  6
CONTINUOUS
 10
676.961262
 20
138.346847
 40
11.809862
 50
165.846836
 51
173.848251
  0
ARC
  8
1
 62
7
  6
CONTINUOUS
 10
669.821172
 20
140.134431
 40
4.449432
 50
150.604091
 51
165.685420
  0
ARC
  8
1
 62
7
  6
CONTINUOUS
 10
666.630165
 20
141.930482
 40
0.787697
 50
102.669311
 51
150.497061
  0
LINE
  8
1
 62
7
  6
CONTINUOUS
 10
666.457404
 20
142.199000
 11
666.457404
 21
133.199000
  0
LINE
  8
1
 62
7
  6
CONTINUOUS
 10
666.457404
 20
142.199000
 11
666.119240
 21
142.537165
  0
LINE
  8
1
 62
7
  6
CONTINUOUS
 10
666.119240
 20
132.860835
 11
666.457404
 21
133.199000
  0
LINE
  8
1
 62
7
  6
CONTINUOUS
 10
665.957404
 20
142.337887
 11
665.957404
 21
133.060113
  0
LINE
  8
1
 62
7
  6
CONTINUOUS
 10
666.457404
 20
118.699000
 11
666.457404
 21
132.699000
  0
LINE
  8
1
 62
7
  6
DASHDOT
 10
628.928000
 20
217.699000
 11
669.457404
 21
217.699000
  0
LINE
  8
1
 62
7
  6
CONTINUOUS
 10
646.457404
 20
222.699000
 11
631.928000
 21
222.699000
  0
LINE
  8
1
 62
7
  6
CONTINUOUS
 10
646.457404
 20
212.699000
 11
631.928000
 21
212.699000
  0
ARC
  8
1
 62
7
  6
CONTINUOUS
 10
666.496193
 20
222.110986
 40
0.589292
 50
93.774103
 51
159.392270
  0
ARC
  8
1
 62
7
  6
CONTINUOUS
 10
668.949387
 20
220.484096
 40
3.520420
 50
148.597537
 51
167.691974
  0
ARC
  8
1
 62
7
  6
CONTINUOUS
 10
675.661903
 20
218.579526
 40
10.493456
 50
165.343968
 51
174.351118
  0
ARC
  8
1
 62
7
  6
CONTINUOUS
 10
682.320309
 20
217.741366
 40
17.202956
 50
173.755967
 51
-179.858896
  0
ARC
  8
1
 62
7
  6
CONTINUOUS
 10
682.954778
 20
217.690457
 40
17.837375
 50
179.972557
 51
-173.869628
  0
ARC
  8
1
 62
7
  6
CONTINUOUS
 10
676.961262
 20
217.051153
 40
11.809862
 50
-173.848251
 51
-165.846836
  0
ARC
  8
1
 62
7
  6
CONTINUOUS
 10
669.821172
 20
215.263569
 40
4.449432
 50
-165.685420
 51
-150.604091
  0
ARC
  8
1
 62
7
  6
CONTINUOUS
 10
666.630165
 20
213.467518
 40
0.787697
 50
-150.497061
 51
-102.669311
  0
ARC
  8
1
 62
7
  6
CONTINUOUS
 10
646.418616
 20
222.110986
 40
0.589292
 50
20.607730
 51
86.225897
  0
ARC
  8
1
 62
7
  6
CONTINUOUS
 10
643.965422
 20
220.484096
 40
3.520420
 50
12.308026
 51
31.402463
  0
ARC
  8
1
 62
7
  6
CONTINUOUS
 10
637.252906
 20
218.579526
 40
10.493456
 50
5.648882
 51
14.656032
  0
ARC
  8
1
 62
7
  6
CONTINUOUS
 10
630.594500
 20
217.741366
 40
17.202956
 50
-0.141104
 51
6.244033
  0
ARC
  8
1
 62
7
  6
CONTINUOUS
 10
629.960031
 20
217.690457
 40
17.837375
 50
-6.130372
 51
0.027443
  0
ARC
  8
1
 62
7
  6
CONTINUOUS
 10
635.953547
 20
217.051153
 40
11.809862
 50
-14.153164
 51
-6.151749
  0
ARC
  8
1
 62
7
  6
CONTINUOUS
 10
643.093637
 20
215.263569
 40
4.449432
 50
-29.395909
 51
-14.314580
  0
ARC
  8
1
 62
7
  6
CONTINUOUS
 10
646.284644
 20
213.467518
 40
0.787697
 50
-77.330689
 51
-29.502939
  0
LINE
  8
1
 62
7
  6
CONTINUOUS
 10
646.457404
 20
236.699000
 11
646.457404
 21
222.699000
  0
LINE
  8
1
 62
7
  6
CONTINUOUS
 10
666.457404
 20
222.699000
 11
666.457404
 21
236.699000
  0
LINE
  8
1
 62
7
  6
CONTINUOUS
 10
666.457404
 20
213.199000
 11
666.457404
 21
222.199000
  0
LINE
  8
1
 62
7
  6
CONTINUOUS
 10
666.457404
 20
213.199000
 11
666.119240
 21
212.860835
  0
LINE
  8
1
 62
7
  6
CONTINUOUS
 10
666.119240
 20
222.537165
 11
666.457404
 21
222.199000
  0
LINE
  8
1
 62
7
  6
CONTINUOUS
 10
665.957404
 20
213.060113
 11
665.957404
 21
222.337887
  0
LINE
  8
1
 62
7
  6
DASHDOT
 10
656.457404
 20
252.949000
 11
656.457404
 21
102.449000
  0
LINE
  8
1
 62
7
  6
CONTINUOUS
 10
674.157596
 20
171.699000
 11
674.457596
 21
171.999000
  0
LINE
  8
1
 62
7
  6
CONTINUOUS
 10
674.157596
 20
183.699000
 11
674.457596
 21
183.399000
  0
LINE
  8
1
 62
7
  6
CONTINUOUS
 10
674.157596
 20
171.699000
 11
674.157596
 21
183.699000
  0
LINE
  8
1
 62
7
  6
CONTINUOUS
 10
666.457404
 20
171.699000
 11
674.157596
 21
171.699000
  0
LINE
  8
1
 62
7
  6
CONTINUOUS
 10
631.928000
 20
171.699000
 11
646.457404
 21
171.699000
  0
LINE
  8
1
 62
7
  6
CONTINUOUS
 10
666.457404
 20
183.699000
 11
674.157596
 21
183.699000
  0
LINE
  8
1
 62
7
  6
CONTINUOUS
 10
631.928000
 20
183.699000
 11
646.457404
 21
183.699000
  0
LINE
  8
1
 62
7
  6
CONTINUOUS
 10
675.057596
 20
166.699000
 11
684.457596
 21
166.699000
  0
LINE
  8
1
 62
7
  6
CONTINUOUS
 10
674.457596
 20
167.299000
 11
675.057596
 21
166.699000
  0
LINE
  8
1
 62
7
  6
CONTINUOUS
 10
684.457596
 20
188.699000
 11
675.057596
 21
188.699000
  0
LINE
  8
1
 62
7
  6
CONTINUOUS
 10
674.457596
 20
188.099000
 11
674.457596
 21
167.299000
  0
LINE
  8
1
 62
7
  6
CONTINUOUS
 10
675.057596
 20
188.699000
 11
674.457596
 21
188.099000
  0
LINE
  8
1
 62
7
  6
CONTINUOUS
 10
675.057596
 20
188.699000
 11
675.057596
 21
166.699000
  0
ARC
  8
1
 62
7
  6
CONTINUOUS
 10
666.491312
 20
172.625476
 40
0.927097
 50
-149.556184
 51
-92.096007
  0
ARC
  8
1
 62
7
  6
CONTINUOUS
 10
668.753938
 20
174.495372
 40
3.853465
 50
-164.357708
 51
-142.615956
  0
ARC
  8
1
 62
7
  6
CONTINUOUS
 10
674.959521
 20
176.686537
 40
10.429173
 50
-172.930026
 51
-161.957329
  0
ARC
  8
1
 62
7
  6
CONTINUOUS
 10
681.113783
 20
177.650289
 40
16.656450
 50
179.832442
 51
-172.245654
  0
ARC
  8
1
 62
7
  6
CONTINUOUS
 10
681.700246
 20
177.708826
 40
17.242844
 50
172.380562
 51
-179.967350
  0
ARC
  8
1
 62
7
  6
CONTINUOUS
 10
676.160895
 20
178.443886
 40
11.654940
 50
162.535836
 51
172.351519
  0
ARC
  8
1
 62
7
  6
CONTINUOUS
 10
669.560901
 20
180.500060
 40
4.742137
 50
144.671313
 51
162.302352
  0
ARC
  8
1
 62
7
  6
CONTINUOUS
 10
666.613891
 20
182.567108
 40
1.142658
 50
97.871386
 51
143.780804
  0
ARC
  8
1
 62
7
  6
CONTINUOUS
 10
646.423497
 20
172.625476
 40
0.927097
 50
-87.903993
 51
-30.443816
  0
ARC
  8
1
 62
7
  6
CONTINUOUS
 10
644.160871
 20
174.495372
 40
3.853465
 50
-37.384044
 51
-15.642292
  0
ARC
  8
1
 62
7
  6
CONTINUOUS
 10
637.955288
 20
176.686537
 40
10.429173
 50
-18.042671
 51
-7.069974
  0
ARC
  8
1
 62
7
  6
CONTINUOUS
 10
631.801026
 20
177.650289
 40
16.656450
 50
-7.754346
 51
0.167558
  0
ARC
  8
1
 62
7
  6
CONTINUOUS
 10
631.214563
 20
177.708826
 40
17.242844
 50
-0.032650
 51
7.619438
  0
ARC
  8
1
 62
7
  6
CONTINUOUS
 10
636.753914
 20
178.443886
 40
11.654940
 50
7.648481
 51
17.464164
  0
ARC
  8
1
 62
7
  6
CONTINUOUS
 10
643.353908
 20
180.500060
 40
4.742137
 50
17.697648
 51
35.328687
  0
ARC
  8
1
 62
7
  6
CONTINUOUS
 10
646.300918
 20
182.567108
 40
1.142658
 50
36.219196
 51
82.128614
  0
LINE
  8
1
 62
7
  6
CONTINUOUS
 10
666.457404
 20
183.699000
 11
666.457404
 21
212.699000
  0
LINE
  8
1
 62
7
  6
CONTINUOUS
 10
646.457404
 20
171.699000
 11
646.457404
 21
142.699000
  0
LINE
  8
1
 62
7
  6
CONTINUOUS
 10
646.457404
 20
212.699000
 11
646.457404
 21
183.699000
  0
LINE
  8
1
 62
7
  6
CONTINUOUS
 10
678.316553
 20
149.746010
 11
678.259984
 21
148.430791
  0
LINE
  8
1
 62
7
  6
CONTINUOUS
 10
674.910395
 20
146.339852
 11
676.225613
 21
146.396420
  0
LINE
  8
1
 62
7
  6
DASHDOT
 10
660.991443
 20
163.664962
 11
678.866749
 21
145.789655
  0
LINE
  8
1
 62
7
  6
DASHDOT
 10
644.457404
 20
168.199000
 11
668.457404
 21
168.199000
  0
CIRCLE
  8
1
 62
7
  6
CONTINUOUS
 10
446.928000
 20
137.699000
 40
5.000000
  0
LINE
  8
1
 62
7
  6
DASHDOT
 10
452.928000
 20
137.699000
 11
440.928000
 21
137.699000
  0
LINE
  8
1
 62
7
  6
DASHDOT
 10
446.928000
 20
143.699000
 11
446.928000
 21
131.699000
  0
CIRCLE
  8
1
 62
7
  6
CONTINUOUS
 10
446.928000
 20
137.699000
 40
4.150000
  0
LINE
  8
1
 62
7
  6
CONTINUOUS
 10
444.928000
 20
137.699000
 11
445.928000
 21
135.966949
  0
LINE
  8
1
 62
7
  6
CONTINUOUS
 10
445.928000
 20
135.966949
 11
447.928000
 21
135.966949
  0
LINE
  8
1
 62
7
  6
CONTINUOUS
 10
447.928000
 20
135.966949
 11
448.928000
 21
137.699000
  0
LINE
  8
1
 62
7
  6
CONTINUOUS
 10
448.928000
 20
137.699000
 11
447.928000
 21
139.431051
  0
LINE
  8
1
 62
7
  6
CONTINUOUS
 10
447.928000
 20
139.431051
 11
445.928000
 21
139.431051
  0
LINE
  8
1
 62
7
  6
CONTINUOUS
 10
445.928000
 20
139.431051
 11
444.928000
 21
137.699000
  0
CIRCLE
  8
1
 62
7
  6
CONTINUOUS
 10
446.928000
 20
137.699000
 40
3.350000
  0
CIRCLE
  8
1
 62
7
  6
CONTINUOUS
 10
446.928000
 20
217.699000
 40
5.000000
  0
LINE
  8
1
 62
7
  6
DASHDOT
 10
452.928000
 20
217.699000
 11
440.928000
 21
217.699000
  0
LINE
  8
1
 62
7
  6
DASHDOT
 10
446.928000
 20
211.699000
 11
446.928000
 21
223.699000
  0
CIRCLE
  8
1
 62
7
  6
CONTINUOUS
 10
446.928000
 20
217.699000
 40
4.150000
  0
LINE
  8
1
 62
7
  6
CONTINUOUS
 10
444.928000
 20
217.699000
 11
445.928000
 21
219.431051
  0
LINE
  8
1
 62
7
  6
CONTINUOUS
 10
445.928000
 20
219.431051
 11
447.928000
 21
219.431051
  0
LINE
  8
1
 62
7
  6
CONTINUOUS
 10
447.928000
 20
219.431051
 11
448.928000
 21
217.699000
  0
LINE
  8
1
 62
7
  6
CONTINUOUS
 10
448.928000
 20
217.699000
 11
447.928000
 21
215.966949
  0
LINE
  8
1
 62
7
  6
CONTINUOUS
 10
447.928000
 20
215.966949
 11
445.928000
 21
215.966949
  0
LINE
  8
1
 62
7
  6
CONTINUOUS
 10
445.928000
 20
215.966949
 11
444.928000
 21
217.699000
  0
CIRCLE
  8
1
 62
7
  6
CONTINUOUS
 10
446.928000
 20
217.699000
 40
3.350000
  0
CIRCLE
  8
1
 62
7
  6
CONTINUOUS
 10
596.928000
 20
137.699000
 40
5.000000
  0
LINE
  8
1
 62
7
  6
DASHDOT
 10
590.928000
 20
137.699000
 11
602.928000
 21
137.699000
  0
LINE
  8
1
 62
7
  6
DASHDOT
 10
596.928000
 20
143.699000
 11
596.928000
 21
131.699000
  0
CIRCLE
  8
1
 62
7
  6
CONTINUOUS
 10
596.928000
 20
137.699000
 40
4.150000
  0
LINE
  8
1
 62
7
  6
CONTINUOUS
 10
598.928000
 20
137.699000
 11
597.928000
 21
135.966949
  0
LINE
  8
1
 62
7
  6
CONTINUOUS
 10
597.928000
 20
135.966949
 11
595.928000
 21
135.966949
  0
LINE
  8
1
 62
7
  6
CONTINUOUS
 10
595.928000
 20
135.966949
 11
594.928000
 21
137.699000
  0
LINE
  8
1
 62
7
  6
CONTINUOUS
 10
594.928000
 20
137.699000
 11
595.928000
 21
139.431051
  0
LINE
  8
1
 62
7
  6
CONTINUOUS
 10
595.928000
 20
139.431051
 11
597.928000
 21
139.431051
  0
LINE
  8
1
 62
7
  6
CONTINUOUS
 10
597.928000
 20
139.431051
 11
598.928000
 21
137.699000
  0
CIRCLE
  8
1
 62
7
  6
CONTINUOUS
 10
596.928000
 20
137.699000
 40
3.350000
  0
CIRCLE
  8
1
 62
7
  6
CONTINUOUS
 10
596.928000
 20
217.699000
 40
5.000000
  0
LINE
  8
1
 62
7
  6
DASHDOT
 10
590.928000
 20
217.699000
 11
602.928000
 21
217.699000
  0
LINE
  8
1
 62
7
  6
DASHDOT
 10
596.928000
 20
211.699000
 11
596.928000
 21
223.699000
  0
CIRCLE
  8
1
 62
7
  6
CONTINUOUS
 10
596.928000
 20
217.699000
 40
4.150000
  0
LINE
  8
1
 62
7
  6
CONTINUOUS
 10
598.928000
 20
217.699000
 11
597.928000
 21
219.431051
  0
LINE
  8
1
 62
7
  6
CONTINUOUS
 10
597.928000
 20
219.431051
 11
595.928000
 21
219.431051
  0
LINE
  8
1
 62
7
  6
CONTINUOUS
 10
595.928000
 20
219.431051
 11
594.928000
 21
217.699000
  0
LINE
  8
1
 62
7
  6
CONTINUOUS
 10
594.928000
 20
217.699000
 11
595.928000
 21
215.966949
  0
LINE
  8
1
 62
7
  6
CONTINUOUS
 10
595.928000
 20
215.966949
 11
597.928000
 21
215.966949
  0
LINE
  8
1
 62
7
  6
CONTINUOUS
 10
597.928000
 20
215.966949
 11
598.928000
 21
217.699000
  0
CIRCLE
  8
1
 62
7
  6
CONTINUOUS
 10
596.928000
 20
217.699000
 40
3.350000
  0
ARC
  8
1
 62
7
  6
CONTINUOUS
 10
677.617134
 20
148.475293
 40
0.645314
 50
-29.077417
 51
-3.879736
  0
ARC
  8
1
 62
7
  6
CONTINUOUS
 10
676.156864
 20
149.135787
 40
2.246438
 50
-36.400718
 51
-25.697816
  0
ARC
  8
1
 62
7
  6
CONTINUOUS
 10
674.440124
 20
150.322278
 40
4.332787
 50
-42.365074
 51
-35.557367
  0
ARC
  8
1
 62
7
  6
CONTINUOUS
 10
673.621641
 20
151.034764
 40
5.417704
 50
-47.900429
 51
-42.099571
  0
ARC
  8
1
 62
7
  6
CONTINUOUS
 10
674.151411
 20
150.442227
 40
4.622886
 50
-54.228804
 51
-47.848756
  0
ARC
  8
1
 62
7
  6
CONTINUOUS
 10
675.339356
 20
148.800624
 40
2.596549
 50
-63.578912
 51
-54.322553
  0
ARC
  8
1
 62
7
  6
CONTINUOUS
 10
676.126503
 20
147.223880
 40
0.834253
 50
-83.235044
 51
-63.807804
  0
ARC
  8
1
 62
7
  6
CONTINUOUS
 10
678.021897
 20
149.742257
 40
0.303068
 50
-23.273620
 51
41.459322
  0
ARC
  8
1
 62
7
  6
CONTINUOUS
 10
676.606245
 20
150.011971
 40
1.738251
 50
-32.353750
 51
-12.947272
  0
ARC
  8
1
 62
7
  6
CONTINUOUS
 10
673.629174
 20
151.647444
 40
5.132740
 50
-39.206108
 51
-29.991231
  0
ARC
  8
1
 62
7
  6
CONTINUOUS
 10
671.046365
 20
153.639881
 40
8.394012
 50
-45.144030
 51
-38.600438
  0
ARC
  8
1
 62
7
  6
CONTINUOUS
 10
670.810451
 20
153.839936
 40
8.702263
 50
-51.283549
 51
-44.971983
  0
ARC
  8
1
 62
7
  6
CONTINUOUS
 10
672.644473
 20
151.555611
 40
5.772797
 50
-59.496995
 51
-51.305667
  0
ARC
  8
1
 62
7
  6
CONTINUOUS
 10
674.468031
 20
148.472890
 40
2.191119
 50
-75.033499
 51
-59.665479
  0
ARC
  8
1
 62
7
  6
CONTINUOUS
 10
674.931670
 20
146.743994
 40
0.401138
 50
-122.949802
 51
-75.235900
  0
LINE
  8
1
 62
7
  6
CONTINUOUS
 10
666.457404
 20
161.734534
 11
678.249024
 21
149.942914
  0
LINE
  8
1
 62
7
  6
CONTINUOUS
 10
674.713490
 20
146.407381
 11
666.457404
 21
154.663466
  0
LINE
  8
1
 62
7
  6
CONTINUOUS
 10
666.457404
 20
142.699000
 11
666.457404
 21
171.699000
  0
CIRCLE
  8
1
 62
7
  6
CONTINUOUS
 10
656.457404
 20
168.199000
 40
6.000000
  0
CIRCLE
  8
1
 62
7
  6
CONTINUOUS
 10
656.457404
 20
168.199000
 40
5.500000
  0
CIRCLE
  8
1
 62
7
  6
CONTINUOUS
 10
656.457404
 20
168.199000
 40
2.500000
  0
CIRCLE
  8
1
 62
7
  6
CONTINUOUS
 10
656.457404
 20
168.199000
 40
3.000000
  0
LINE
  8
1
 62
7
  6
CONTINUOUS
 10
684.457596
 20
148.699000
 11
685.457596
 21
147.699000
  0
LINE
  8
1
 62
7
  6
CONTINUOUS
 10
685.457596
 20
147.699000
 11
701.457596
 21
147.699000
  0
LINE
  8
1
 62
7
  6
CONTINUOUS
 10
702.457596
 20
148.699000
 11
701.457596
 21
147.699000
  0
LINE
  8
1
 62
7
  6
CONTINUOUS
 10
684.457596
 20
206.699000
 11
684.457596
 21
148.699000
  0
LINE
  8
1
 62
7
  6
CONTINUOUS
 10
685.457596
 20
207.699000
 11
684.457596
 21
206.699000
  0
LINE
  8
1
 62
7
  6
CONTINUOUS
 10
702.457596
 20
148.699000
 11
702.457596
 21
206.699000
  0
LINE
  8
1
 62
7
  6
CONTINUOUS
 10
701.457596
 20
207.699000
 11
685.457596
 21
207.699000
  0
LINE
  8
1
 62
7
  6
CONTINUOUS
 10
702.457596
 20
206.699000
 11
701.457596
 21
207.699000
  0
LINE
  8
1
 62
7
  6
CONTINUOUS
 10
701.457596
 20
147.699000
 11
701.457596
 21
207.699000
  0
LINE
  8
1
 62
7
  6
CONTINUOUS
 10
685.457596
 20
207.699000
 11
685.457596
 21
147.699000
  0
LINE
  8
1
 62
7
  6
CONTINUOUS
 10
700.457596
 20
147.699000
 11
700.457596
 21
207.699000
  0
LINE
  8
1
 62
7
  6
CONTINUOUS
 10
686.457596
 20
207.699000
 11
686.457596
 21
147.699000
  0
LINE
  8
1
 62
7
  6
CONTINUOUS
 10
689.724837
 20
196.833868
 11
686.457596
 21
196.833868
  0
LINE
  8
1
 62
7
  6
CONTINUOUS
 10
686.457596
 20
198.833868
 11
694.966216
 21
198.833868
  0
LINE
  8
1
 62
7
  6
CONTINUOUS
 10
700.207596
 20
200.833868
 11
686.457596
 21
200.833868
  0
LINE
  8
1
 62
7
  6
CONTINUOUS
 10
686.457596
 20
202.833868
 11
700.457596
 21
202.833868
  0
LINE
  8
1
 62
7
  6
CONTINUOUS
 10
700.457596
 20
204.833868
 11
686.457596
 21
204.833868
  0
LINE
  8
1
 62
7
  6
CONTINUOUS
 10
686.457596
 20
206.833868
 11
700.457596
 21
206.833868
  0
LINE
  8
1
 62
7
  6
CONTINUOUS
 10
698.457596
 20
207.699000
 11
698.457596
 21
200.166105
  0
LINE
  8
1
 62
7
  6
CONTINUOUS
 10
696.457596
 20
199.402947
 11
696.457596
 21
207.699000
  0
LINE
  8
1
 62
7
  6
CONTINUOUS
 10
694.457596
 20
207.699000
 11
694.457596
 21
198.639789
  0
LINE
  8
1
 62
7
  6
CONTINUOUS
 10
692.457596
 20
197.876632
 11
692.457596
 21
207.699000
  0
LINE
  8
1
 62
7
  6
CONTINUOUS
 10
690.457596
 20
207.699000
 11
690.457596
 21
197.113474
  0
LINE
  8
1
 62
7
  6
CONTINUOUS
 10
688.457596
 20
196.350316
 11
688.457596
 21
207.699000
  0
LINE
  8
1
 62
7
  6
CONTINUOUS
 10
697.190354
 20
158.564132
 11
700.457596
 21
158.564132
  0
LINE
  8
1
 62
7
  6
CONTINUOUS
 10
700.457596
 20
156.564132
 11
691.948975
 21
156.564132
  0
LINE
  8
1
 62
7
  6
CONTINUOUS
 10
686.707596
 20
154.564132
 11
700.457596
 21
154.564132
  0
LINE
  8
1
 62
7
  6
CONTINUOUS
 10
700.457596
 20
152.564132
 11
686.457596
 21
152.564132
  0
LINE
  8
1
 62
7
  6
CONTINUOUS
 10
686.457596
 20
150.564132
 11
700.457596
 21
150.564132
  0
LINE
  8
1
 62
7
  6
CONTINUOUS
 10
700.457596
 20
148.564132
 11
686.457596
 21
148.564132
  0
LINE
  8
1
 62
7
  6
CONTINUOUS
 10
688.457596
 20
147.699000
 11
688.457596
 21
155.231895
  0
LINE
  8
1
 62
7
  6
CONTINUOUS
 10
690.457596
 20
155.995053
 11
690.457596
 21
147.699000
  0
LINE
  8
1
 62
7
  6
CONTINUOUS
 10
692.457596
 20
147.699000
 11
692.457596
 21
156.758211
  0
LINE
  8
1
 62
7
  6
CONTINUOUS
 10
694.457596
 20
157.521368
 11
694.457596
 21
147.699000
  0
LINE
  8
1
 62
7
  6
CONTINUOUS
 10
696.457596
 20
147.699000
 11
696.457596
 21
158.284526
  0
LINE
  8
1
 62
7
  6
CONTINUOUS
 10
698.457596
 20
159.047684
 11
698.457596
 21
147.699000
  0
CIRCLE
  8
1
 62
7
  6
CONTINUOUS
 10
571.928000
 20
227.699000
 40
2.250000
  0
LINE
  8
1
 62
7
  6
DASHDOT
 10
571.928000
 20
232.949000
 11
571.928000
 21
222.449000
  0
LINE
  8
1
 62
7
  6
DASHDOT
 10
566.678000
 20
227.699000
 11
577.178000
 21
227.699000
  0
CIRCLE
  8
1
 62
7
  6
CONTINUOUS
 10
471.928000
 20
227.699000
 40
2.250000
  0
LINE
  8
1
 62
7
  6
DASHDOT
 10
466.678000
 20
227.699000
 11
477.178000
 21
227.699000
  0
LINE
  8
1
 62
7
  6
DASHDOT
 10
471.928000
 20
222.449000
 11
471.928000
 21
232.949000
  0
CIRCLE
  8
1
 62
7
  6
CONTINUOUS
 10
471.928000
 20
127.699000
 40
2.250000
  0
LINE
  8
1
 62
7
  6
DASHDOT
 10
471.928000
 20
122.449000
 11
471.928000
 21
132.949000
  0
LINE
  8
1
 62
7
  6
DASHDOT
 10
477.178000
 20
127.699000
 11
466.678000
 21
127.699000
  0
CIRCLE
  8
1
 62
7
  6
CONTINUOUS
 10
571.928000
 20
127.699000
 40
2.250000
  0
LINE
  8
1
 62
7
  6
DASHDOT
 10
577.178000
 20
127.699000
 11
566.678000
 21
127.699000
  0
LINE
  8
1
 62
7
  6
DASHDOT
 10
571.928000
 20
132.949000
 11
571.928000
 21
122.449000
  0
CIRCLE
  8
1
 62
7
  6
CONTINUOUS
 10
621.928000
 20
247.699000
 40
2.500000
  0
CIRCLE
  8
1
 62
7
  6
CONTINUOUS
 10
621.928000
 20
247.699000
 40
3.000000
  0
LINE
  8
1
 62
7
  6
DASHDOT
 10
615.928000
 20
247.699000
 11
627.928000
 21
247.699000
  0
LINE
  8
1
 62
7
  6
DASHDOT
 10
621.928000
 20
241.699000
 11
621.928000
 21
253.699000
  0
CIRCLE
  8
1
 62
7
  6
CONTINUOUS
 10
421.928000
 20
247.699000
 40
2.500000
  0
CIRCLE
  8
1
 62
7
  6
CONTINUOUS
 10
421.928000
 20
247.699000
 40
3.000000
  0
LINE
  8
1
 62
7
  6
DASHDOT
 10
427.928000
 20
247.699000
 11
415.928000
 21
247.699000
  0
LINE
  8
1
 62
7
  6
DASHDOT
 10
421.928000
 20
241.699000
 11
421.928000
 21
253.699000
  0
CIRCLE
  8
1
 62
7
  6
CONTINUOUS
 10
621.928000
 20
107.699000
 40
2.500000
  0
CIRCLE
  8
1
 62
7
  6
CONTINUOUS
 10
621.928000
 20
107.699000
 40
3.000000
  0
LINE
  8
1
 62
7
  6
DASHDOT
 10
615.928000
 20
107.699000
 11
627.928000
 21
107.699000
  0
LINE
  8
1
 62
7
  6
DASHDOT
 10
621.928000
 20
113.699000
 11
621.928000
 21
101.699000
  0
CIRCLE
  8
1
 62
7
  6
CONTINUOUS
 10
421.928000
 20
107.699000
 40
2.500000
  0
CIRCLE
  8
1
 62
7
  6
CONTINUOUS
 10
421.928000
 20
107.699000
 40
3.000000
  0
LINE
  8
1
 62
7
  6
DASHDOT
 10
427.928000
 20
107.699000
 11
415.928000
 21
107.699000
  0
LINE
  8
1
 62
7
  6
DASHDOT
 10
421.928000
 20
113.699000
 11
421.928000
 21
101.699000
  0
CIRCLE
  8
1
 62
7
  6
CONTINUOUS
 10
387.398596
 20
234.199000
 40
2.000000
  0
CIRCLE
  8
1
 62
7
  6
CONTINUOUS
 10
387.398596
 20
234.199000
 40
1.650000
  0
LINE
  8
1
 62
7
  6
DASHDOT
 10
384.398596
 20
234.199000
 11
390.398596
 21
234.199000
  0
CIRCLE
  8
1
 62
7
  6
CONTINUOUS
 10
387.398596
 20
234.199000
 40
1.500000
  0
LINE
  8
1
 62
7
  6
CONTINUOUS
 10
388.398596
 20
234.799000
 11
387.398596
 21
235.399000
  0
LINE
  8
1
 62
7
  6
CONTINUOUS
 10
387.398596
 20
235.399000
 11
386.398596
 21
234.799000
  0
LINE
  8
1
 62
7
  6
CONTINUOUS
 10
386.398596
 20
234.799000
 11
386.398596
 21
233.599000
  0
LINE
  8
1
 62
7
  6
CONTINUOUS
 10
386.398596
 20
233.599000
 11
387.398596
 21
232.999000
  0
LINE
  8
1
 62
7
  6
CONTINUOUS
 10
387.398596
 20
232.999000
 11
388.398596
 21
233.599000
  0
LINE
  8
1
 62
7
  6
CONTINUOUS
 10
388.398596
 20
233.599000
 11
388.398596
 21
234.799000
  0
CIRCLE
  8
1
 62
7
  6
CONTINUOUS
 10
387.398596
 20
121.199000
 40
2.000000
  0
CIRCLE
  8
1
 62
7
  6
CONTINUOUS
 10
387.398596
 20
121.199000
 40
1.650000
  0
LINE
  8
1
 62
7
  6
DASHDOT
 10
384.398596
 20
121.199000
 11
390.398596
 21
121.199000
  0
CIRCLE
  8
1
 62
7
  6
CONTINUOUS
 10
387.398596
 20
121.199000
 40
1.500000
  0
LINE
  8
1
 62
7
  6
CONTINUOUS
 10
388.398596
 20
120.599000
 11
387.398596
 21
119.999000
  0
LINE
  8
1
 62
7
  6
CONTINUOUS
 10
387.398596
 20
119.999000
 11
386.398596
 21
120.599000
  0
LINE
  8
1
 62
7
  6
CONTINUOUS
 10
386.398596
 20
120.599000
 11
386.398596
 21
121.799000
  0
LINE
  8
1
 62
7
  6
CONTINUOUS
 10
386.398596
 20
121.799000
 11
387.398596
 21
122.399000
  0
LINE
  8
1
 62
7
  6
CONTINUOUS
 10
387.398596
 20
122.399000
 11
388.398596
 21
121.799000
  0
LINE
  8
1
 62
7
  6
CONTINUOUS
 10
388.398596
 20
121.799000
 11
388.398596
 21
120.599000
  0
CIRCLE
  8
1
 62
7
  6
CONTINUOUS
 10
387.398596
 20
202.699000
 40
2.000000
  0
CIRCLE
  8
1
 62
7
  6
CONTINUOUS
 10
387.398596
 20
202.699000
 40
1.650000
  0
CIRCLE
  8
1
 62
7
  6
CONTINUOUS
 10
387.398596
 20
202.699000
 40
1.500000
  0
LINE
  8
1
 62
7
  6
CONTINUOUS
 10
388.398596
 20
202.099000
 11
387.398596
 21
201.499000
  0
LINE
  8
1
 62
7
  6
CONTINUOUS
 10
387.398596
 20
201.499000
 11
386.398596
 21
202.099000
  0
LINE
  8
1
 62
7
  6
CONTINUOUS
 10
386.398596
 20
202.099000
 11
386.398596
 21
203.299000
  0
LINE
  8
1
 62
7
  6
CONTINUOUS
 10
386.398596
 20
203.299000
 11
387.398596
 21
203.899000
  0
LINE
  8
1
 62
7
  6
CONTINUOUS
 10
387.398596
 20
203.899000
 11
388.398596
 21
203.299000
  0
LINE
  8
1
 62
7
  6
CONTINUOUS
 10
388.398596
 20
203.299000
 11
388.398596
 21
202.099000
  0
CIRCLE
  8
1
 62
7
  6
CONTINUOUS
 10
387.398596
 20
152.699000
 40
2.000000
  0
CIRCLE
  8
1
 62
7
  6
CONTINUOUS
 10
387.398596
 20
152.699000
 40
1.650000
  0
CIRCLE
  8
1
 62
7
  6
CONTINUOUS
 10
387.398596
 20
152.699000
 40
1.500000
  0
LINE
  8
1
 62
7
  6
CONTINUOUS
 10
388.398596
 20
153.299000
 11
387.398596
 21
153.899000
  0
LINE
  8
1
 62
7
  6
CONTINUOUS
 10
387.398596
 20
153.899000
 11
386.398596
 21
153.299000
  0
LINE
  8
1
 62
7
  6
CONTINUOUS
 10
386.398596
 20
153.299000
 11
386.398596
 21
152.099000
  0
LINE
  8
1
 62
7
  6
CONTINUOUS
 10
386.398596
 20
152.099000
 11
387.398596
 21
151.499000
  0
LINE
  8
1
 62
7
  6
CONTINUOUS
 10
387.398596
 20
151.499000
 11
388.398596
 21
152.099000
  0
LINE
  8
1
 62
7
  6
CONTINUOUS
 10
388.398596
 20
152.099000
 11
388.398596
 21
153.299000
  0
CIRCLE
  8
1
 62
7
  6
CONTINUOUS
 10
656.457404
 20
234.199000
 40
2.000000
  0
CIRCLE
  8
1
 62
7
  6
CONTINUOUS
 10
656.457404
 20
234.199000
 40
1.650000
  0
LINE
  8
1
 62
7
  6
DASHDOT
 10
659.457404
 20
234.199000
 11
653.457404
 21
234.199000
  0
CIRCLE
  8
1
 62
7
  6
CONTINUOUS
 10
656.457404
 20
234.199000
 40
1.500000
  0
LINE
  8
1
 62
7
  6
CONTINUOUS
 10
655.457404
 20
234.799000
 11
656.457404
 21
235.399000
  0
LINE
  8
1
 62
7
  6
CONTINUOUS
 10
656.457404
 20
235.399000
 11
657.457404
 21
234.799000
  0
LINE
  8
1
 62
7
  6
CONTINUOUS
 10
657.457404
 20
234.799000
 11
657.457404
 21
233.599000
  0
LINE
  8
1
 62
7
  6
CONTINUOUS
 10
657.457404
 20
233.599000
 11
656.457404
 21
232.999000
  0
LINE
  8
1
 62
7
  6
CONTINUOUS
 10
656.457404
 20
232.999000
 11
655.457404
 21
233.599000
  0
LINE
  8
1
 62
7
  6
CONTINUOUS
 10
655.457404
 20
233.599000
 11
655.457404
 21
234.799000
  0
CIRCLE
  8
1
 62
7
  6
CONTINUOUS
 10
656.457404
 20
121.199000
 40
2.000000
  0
CIRCLE
  8
1
 62
7
  6
CONTINUOUS
 10
656.457404
 20
121.199000
 40
1.650000
  0
LINE
  8
1
 62
7
  6
DASHDOT
 10
659.457404
 20
121.199000
 11
653.457404
 21
121.199000
  0
CIRCLE
  8
1
 62
7
  6
CONTINUOUS
 10
656.457404
 20
121.199000
 40
1.500000
  0
LINE
  8
1
 62
7
  6
CONTINUOUS
 10
655.457404
 20
120.599000
 11
656.457404
 21
119.999000
  0
LINE
  8
1
 62
7
  6
CONTINUOUS
 10
656.457404
 20
119.999000
 11
657.457404
 21
120.599000
  0
LINE
  8
1
 62
7
  6
CONTINUOUS
 10
657.457404
 20
120.599000
 11
657.457404
 21
121.799000
  0
LINE
  8
1
 62
7
  6
CONTINUOUS
 10
657.457404
 20
121.799000
 11
656.457404
 21
122.399000
  0
LINE
  8
1
 62
7
  6
CONTINUOUS
 10
656.457404
 20
122.399000
 11
655.457404
 21
121.799000
  0
LINE
  8
1
 62
7
  6
CONTINUOUS
 10
655.457404
 20
121.799000
 11
655.457404
 21
120.599000
  0
CIRCLE
  8
1
 62
7
  6
CONTINUOUS
 10
656.457404
 20
137.699000
 40
2.000000
  0
CIRCLE
  8
1
 62
7
  6
CONTINUOUS
 10
656.457404
 20
137.699000
 40
1.650000
  0
CIRCLE
  8
1
 62
7
  6
CONTINUOUS
 10
656.457404
 20
137.699000
 40
1.500000
  0
LINE
  8
1
 62
7
  6
CONTINUOUS
 10
657.457404
 20
138.299000
 11
656.457404
 21
138.899000
  0
LINE
  8
1
 62
7
  6
CONTINUOUS
 10
656.457404
 20
138.899000
 11
655.457404
 21
138.299000
  0
LINE
  8
1
 62
7
  6
CONTINUOUS
 10
655.457404
 20
138.299000
 11
655.457404
 21
137.099000
  0
LINE
  8
1
 62
7
  6
CONTINUOUS
 10
655.457404
 20
137.099000
 11
656.457404
 21
136.499000
  0
LINE
  8
1
 62
7
  6
CONTINUOUS
 10
656.457404
 20
136.499000
 11
657.457404
 21
137.099000
  0
LINE
  8
1
 62
7
  6
CONTINUOUS
 10
657.457404
 20
137.099000
 11
657.457404
 21
138.299000
  0
CIRCLE
  8
1
 62
7
  6
CONTINUOUS
 10
656.457404
 20
217.699000
 40
2.000000
  0
CIRCLE
  8
1
 62
7
  6
CONTINUOUS
 10
656.457404
 20
217.699000
 40
1.650000
  0
CIRCLE
  8
1
 62
7
  6
CONTINUOUS
 10
656.457404
 20
217.699000
 40
1.500000
  0
LINE
  8
1
 62
7
  6
CONTINUOUS
 10
657.457404
 20
218.299000
 11
656.457404
 21
218.899000
  0
LINE
  8
1
 62
7
  6
CONTINUOUS
 10
656.457404
 20
218.899000
 11
655.457404
 21
218.299000
  0
LINE
  8
1
 62
7
  6
CONTINUOUS
 10
655.457404
 20
218.299000
 11
655.457404
 21
217.099000
  0
LINE
  8
1
 62
7
  6
CONTINUOUS
 10
655.457404
 20
217.099000
 11
656.457404
 21
216.499000
  0
LINE
  8
1
 62
7
  6
CONTINUOUS
 10
656.457404
 20
216.499000
 11
657.457404
 21
217.099000
  0
LINE
  8
1
 62
7
  6
CONTINUOUS
 10
657.457404
 20
217.099000
 11
657.457404
 21
218.299000
  0
LINE
  8
1
 62
7
  6
CONTINUOUS
 10
630.928000
 20
277.699000
 11
631.928000
 21
276.699000
  0
LINE
  8
1
 62
7
  6
CONTINUOUS
 10
412.928000
 20
277.699000
 11
630.928000
 21
277.699000
  0
LINE
  8
1
 62
7
  6
CONTINUOUS
 10
411.928000
 20
276.699000
 11
412.928000
 21
277.699000
  0
LINE
  8
1
 62
7
  6
CONTINUOUS
 10
630.928000
 20
77.699000
 11
631.928000
 21
78.699000
  0
LINE
  8
1
 62
7
  6
CONTINUOUS
 10
630.928000
 20
77.699000
 11
412.928000
 21
77.699000
  0
LINE
  8
1
 62
7
  6
CONTINUOUS
 10
412.928000
 20
77.699000
 11
411.928000
 21
78.699000
  0
LINE
  8
1
 62
7
  6
CONTINUOUS
 10
631.928000
 20
78.699000
 11
631.928000
 21
276.699000
  0
LINE
  8
1
 62
7
  6
CONTINUOUS
 10
411.928000
 20
78.699000
 11
411.928000
 21
276.699000
  0
LINE
  8
1
 62
7
  6
DASHDOT
 10
621.928000
 20
83.949000
 11
621.928000
 21
96.449000
  0
LINE
  8
1
 62
7
  6
DASHDOT
 10
621.928000
 20
271.449000
 11
621.928000
 21
258.949000
  0
LINE
  8
1
 62
7
  6
DASHDOT
 10
421.928000
 20
83.949000
 11
421.928000
 21
96.449000
  0
LINE
  8
1
 62
7
  6
DASHDOT
 10
421.928000
 20
271.449000
 11
421.928000
 21
258.949000
  0
CIRCLE
  8
1
 62
7
  6
CONTINUOUS
 10
504.928000
 20
267.699000
 40
4.000000
  0
CIRCLE
  8
1
 62
7
  6
CONTINUOUS
 10
521.928000
 20
267.699000
 40
5.000000
  0
CIRCLE
  8
1
 62
7
  6
CONTINUOUS
 10
521.928000
 20
267.699000
 40
4.000000
  0
CIRCLE
  8
1
 62
7
  6
CONTINUOUS
 10
421.928000
 20
265.199000
 40
3.250000
  0
LINE
  8
1
 62
7
  6
DASHDOT
 10
428.178000
 20
265.199000
 11
415.678000
 21
265.199000
  0
CIRCLE
  8
1
 62
7
  6
CONTINUOUS
 10
421.928000
 20
90.199000
 40
3.250000
  0
LINE
  8
1
 62
7
  6
DASHDOT
 10
428.178000
 20
90.199000
 11
415.678000
 21
90.199000
  0
CIRCLE
  8
1
 62
7
  6
CONTINUOUS
 10
621.928000
 20
265.199000
 40
3.250000
  0
LINE
  8
1
 62
7
  6
DASHDOT
 10
615.678000
 20
265.199000
 11
628.178000
 21
265.199000
  0
CIRCLE
  8
1
 62
7
  6
CONTINUOUS
 10
621.928000
 20
90.199000
 40
3.250000
  0
LINE
  8
1
 62
7
  6
DASHDOT
 10
615.678000
 20
90.199000
 11
628.178000
 21
90.199000
  0
LINE
  8
1
 62
7
  6
DASHDOT
 10
521.928000
 20
72.663000
 11
521.928000
 21
282.699000
  0
LINE
  8
1
 62
7
  6
CONTINUOUS
 10
524.928000
 20
296.699000
 11
531.928000
 21
296.699000
  0
LINE
  8
1
 62
7
  6
CONTINUOUS
 10
531.928000
 20
296.699000
 11
531.928000
 21
277.699000
  0
LINE
  8
1
 62
7
  6
CONTINUOUS
 10
496.928000
 20
296.699000
 11
494.928000
 21
294.699000
  0
LINE
  8
1
 62
7
  6
CONTINUOUS
 10
526.928000
 20
280.699000
 11
526.928000
 21
294.699000
  0
LINE
  8
1
 62
7
  6
CONTINUOUS
 10
496.928000
 20
296.699000
 11
524.928000
 21
296.699000
  0
LINE
  8
1
 62
7
  6
CONTINUOUS
 10
526.928000
 20
294.699000
 11
524.928000
 21
296.699000
  0
LINE
  8
1
 62
7
  6
CONTINUOUS
 10
523.928000
 20
277.699000
 11
526.928000
 21
280.699000
  0
ARC
  8
1
 62
7
  6
CONTINUOUS
 10
548.570431
 20
313.593272
 40
3.000000
 50
3.000000
 51
86.152023
  0
ARC
  8
1
 62
7
  6
CONTINUOUS
 10
551.678000
 20
306.349000
 40
0.500000
 50
0.000000
 51
90.000000
  0
ARC
  8
1
 62
7
  6
CONTINUOUS
 10
495.285569
 20
313.593272
 40
3.000000
 50
93.847977
 51
177.000000
  0
ARC
  8
1
 62
7
  6
CONTINUOUS
 10
521.928000
 20
-82.511741
 40
400.000000
 50
88.237402
 51
93.847977
  0
ARC
  8
1
 62
7
  6
CONTINUOUS
 10
521.928000
 20
-82.511741
 40
400.000000
 50
86.152023
 51
88.237402
  0
ARC
  8
1
 62
7
  6
CONTINUOUS
 10
546.028000
 20
283.899000
 40
1.000000
 50
-90.000000
 51
0.000000
  0
LINE
  8
1
 62
7
  6
CONTINUOUS
 10
547.028000
 20
283.899000
 11
547.028000
 21
284.399000
  0
LINE
  8
1
 62
7
  6
CONTINUOUS
 10
491.928000
 20
302.149000
 11
552.178000
 21
302.149000
  0
LINE
  8
1
 62
7
  6
CONTINUOUS
 10
516.226891
 20
306.849000
 11
516.226891
 21
302.149000
  0
LINE
  8
1
 62
7
  6
CONTINUOUS
 10
517.211665
 20
306.849000
 11
517.211665
 21
302.149000
  0
LINE
  8
1
 62
7
  6
CONTINUOUS
 10
518.815611
 20
306.849000
 11
518.815611
 21
302.149000
  0
LINE
  8
1
 62
7
  6
CONTINUOUS
 10
519.811771
 20
306.849000
 11
519.811771
 21
302.149000
  0
LINE
  8
1
 62
7
  6
CONTINUOUS
 10
527.629109
 20
306.849000
 11
527.629109
 21
302.149000
  0
LINE
  8
1
 62
7
  6
CONTINUOUS
 10
526.644335
 20
306.849000
 11
526.644335
 21
302.149000
  0
LINE
  8
1
 62
7
  6
CONTINUOUS
 10
525.040389
 20
306.849000
 11
525.040389
 21
302.149000
  0
LINE
  8
1
 62
7
  6
CONTINUOUS
 10
523.821569
 20
306.849000
 11
523.821569
 21
302.149000
  0
LINE
  8
1
 62
7
  6
CONTINUOUS
 10
521.428017
 20
306.849000
 11
521.428017
 21
302.149000
  0
LINE
  8
1
 62
7
  6
CONTINUOUS
 10
491.928000
 20
306.849000
 11
551.928000
 21
306.849000
  0
LINE
  8
1
 62
7
  6
CONTINUOUS
 10
522.427983
 20
306.849000
 11
522.427983
 21
302.149000
  0
LINE
  8
1
 62
7
  6
CONTINUOUS
 10
495.957225
 20
302.149000
 11
495.957225
 21
306.849000
  0
LINE
  8
1
 62
7
  6
CONTINUOUS
 10
494.728612
 20
302.149000
 11
494.728612
 21
306.849000
  0
LINE
  8
1
 62
7
  6
CONTINUOUS
 10
493.710375
 20
302.149000
 11
493.710375
 21
306.849000
  0
LINE
  8
1
 62
7
  6
CONTINUOUS
 10
492.910262
 20
302.149000
 11
492.910262
 21
306.849000
  0
LINE
  8
1
 62
7
  6
CONTINUOUS
 10
552.178000
 20
306.349000
 11
552.178000
 21
302.149000
  0
LINE
  8
1
 62
7
  6
CONTINUOUS
 10
492.728000
 20
301.349000
 11
551.128000
 21
301.349000
  0
LINE
  8
1
 62
7
  6
CONTINUOUS
 10
491.928000
 20
302.149000
 11
491.928000
 21
306.849000
  0
LINE
  8
1
 62
7
  6
CONTINUOUS
 10
491.928000
 20
302.149000
 11
492.728000
 21
301.349000
  0
LINE
  8
1
 62
7
  6
CONTINUOUS
 10
551.928000
 20
306.849000
 11
551.566319
 21
313.750279
  0
LINE
  8
1
 62
7
  6
CONTINUOUS
 10
492.289681
 20
313.750279
 11
491.928000
 21
306.849000
  0
LINE
  8
1
 62
7
  6
CONTINUOUS
 10
551.128000
 20
301.349000
 11
551.928000
 21
302.149000
  0
LINE
  8
1
 62
7
  6
CONTINUOUS
 10
491.794062
 20
302.149000
 11
491.794062
 21
306.669299
  0
LINE
  8
1
 62
7
  6
CONTINUOUS
 10
491.678000
 20
302.149000
 11
491.678000
 21
306.349000
  0
LINE
  8
1
 62
7
  6
CONTINUOUS
 10
548.928000
 20
284.399000
 11
548.928000
 21
301.349000
  0
LINE
  8
1
 62
7
  6
CONTINUOUS
 10
494.928000
 20
301.349000
 11
494.928000
 21
277.699000
  0
LINE
  8
1
 62
7
  6
CONTINUOUS
 10
531.928000
 20
284.399000
 11
548.928000
 21
284.399000
  0
LINE
  8
1
 62
7
  6
CONTINUOUS
 10
546.028000
 20
282.899000
 11
531.928000
 21
282.899000
  0
LINE
  8
1
 62
7
  6
DASHDOT
 10
433.928000
 20
418.451000
 11
459.928000
 21
418.451000
  0
LINE
  8
1
 62
7
  6
DASHDOT
 10
446.928000
 20
405.451000
 11
446.928000
 21
431.451000
  0
LINE
  8
1
 62
7
  6
DASHDOT
 10
433.928000
 20
361.451000
 11
459.928000
 21
361.451000
  0
LINE
  8
1
 62
7
  6
DASHDOT
 10
446.928000
 20
374.451000
 11
446.928000
 21
348.451000
  0
CIRCLE
  8
1
 62
7
  6
CONTINUOUS
 10
387.398596
 20
389.951000
 40
8.500000
  0
CIRCLE
  8
1
 62
7
  6
CONTINUOUS
 10
387.398596
 20
389.951000
 40
7.500000
  0
CIRCLE
  8
1
 62
7
  6
CONTINUOUS
 10
446.928000
 20
361.451000
 40
7.500000
  0
CIRCLE
  8
1
 62
7
  6
CONTINUOUS
 10
446.928000
 20
361.451000
 40
8.500000
  0
CIRCLE
  8
1
 62
7
  6
CONTINUOUS
 10
446.928000
 20
418.451000
 40
8.500000
  0
CIRCLE
  8
1
 62
7
  6
CONTINUOUS
 10
446.928000
 20
418.451000
 40
7.500000
  0
LINE
  8
1
 62
7
  6
DASHDOT
 10
387.398596
 20
377.951000
 11
387.398596
 21
401.951000
  0
LINE
  8
1
 62
7
  6
CONTINUOUS
 10
383.512232
 20
398.068646
 11
443.041636
 21
426.568646
  0
LINE
  8
1
 62
7
  6
CONTINUOUS
 10
450.814364
 20
410.333354
 11
391.284959
 21
381.833354
  0
LINE
  8
1
 62
7
  6
CONTINUOUS
 10
383.512232
 20
381.833354
 11
443.041636
 21
353.333354
  0
ARC
  8
1
 62
7
  6
CONTINUOUS
 10
387.398596
 20
389.951000
 40
9.000000
 50
115.583002
 51
-64.416998
  0
ARC
  8
1
 62
7
  6
CONTINUOUS
 10
387.398596
 20
389.951000
 40
10.000000
 50
89.741069
 51
-89.741069
  0
ARC
  8
1
 62
7
  6
CONTINUOUS
 10
446.928000
 20
361.451000
 40
11.000000
 50
-150.679803
 51
-120.272641
  0
ARC
  8
1
 62
7
  6
CONTINUOUS
 10
446.928000
 20
418.451000
 40
9.000000
 50
-64.416998
 51
115.583002
  0
ARC
  8
1
 62
7
  6
CONTINUOUS
 10
446.928000
 20
418.451000
 40
11.000000
 50
120.272641
 51
150.679803
  0
CIRCLE
  8
1
 62
7
  6
CONTINUOUS
 10
390.148596
 20
394.714140
 40
1.050000
  0
CIRCLE
  8
1
 62
7
  6
CONTINUOUS
 10
384.648596
 20
385.187860
 40
1.050000
  0
CIRCLE
  8
1
 62
7
  6
CONTINUOUS
 10
444.178000
 20
413.687860
 40
1.050000
  0
CIRCLE
  8
1
 62
7
  6
CONTINUOUS
 10
449.678000
 20
423.214140
 40
1.050000
  0
CIRCLE
  8
1
 62
7
  6
CONTINUOUS
 10
444.178000
 20
356.687860
 40
1.050000
  0
CIRCLE
  8
1
 62
7
  6
CONTINUOUS
 10
449.678000
 20
366.214140
 40
1.050000
  0
LINE
  8
1
 62
7
  6
CONTINUOUS
 10
446.928000
 20
408.472738
 11
485.615299
 21
389.951000
  0
ARC
  8
1
 62
7
  6
CONTINUOUS
 10
446.928000
 20
361.451000
 40
9.000000
 50
115.583002
 51
-64.416998
  0
LINE
  8
1
 62
7
  6
CONTINUOUS
 10
446.928000
 20
371.429262
 11
408.240701
 21
389.951000
  0
LINE
  8
1
 62
7
  6
DASHDOT
 10
583.928000
 20
418.451000
 11
609.928000
 21
418.451000
  0
LINE
  8
1
 62
7
  6
DASHDOT
 10
596.928000
 20
405.451000
 11
596.928000
 21
431.451000
  0
LINE
  8
1
 62
7
  6
DASHDOT
 10
583.928000
 20
361.451000
 11
609.928000
 21
361.451000
  0
LINE
  8
1
 62
7
  6
DASHDOT
 10
596.928000
 20
374.451000
 11
596.928000
 21
348.451000
  0
CIRCLE
  8
1
 62
7
  6
CONTINUOUS
 10
596.928000
 20
361.451000
 40
7.500000
  0
CIRCLE
  8
1
 62
7
  6
CONTINUOUS
 10
596.928000
 20
361.451000
 40
8.500000
  0
CIRCLE
  8
1
 62
7
  6
CONTINUOUS
 10
596.928000
 20
418.451000
 40
8.500000
  0
CIRCLE
  8
1
 62
7
  6
CONTINUOUS
 10
596.928000
 20
418.451000
 40
7.500000
  0
LINE
  8
1
 62
7
  6
CONTINUOUS
 10
533.512232
 20
398.068646
 11
593.041636
 21
426.568646
  0
LINE
  8
1
 62
7
  6
CONTINUOUS
 10
600.814364
 20
410.333354
 11
541.284959
 21
381.833354
  0
ARC
  8
1
 62
7
  6
CONTINUOUS
 10
596.928000
 20
361.451000
 40
11.000000
 50
-150.679803
 51
-120.272641
  0
ARC
  8
1
 62
7
  6
CONTINUOUS
 10
596.928000
 20
418.451000
 40
9.000000
 50
-64.416998
 51
115.583002
  0
ARC
  8
1
 62
7
  6
CONTINUOUS
 10
596.928000
 20
418.451000
 40
11.000000
 50
120.272641
 51
150.679803
  0
CIRCLE
  8
1
 62
7
  6
CONTINUOUS
 10
656.457404
 20
389.951000
 40
8.500000
  0
CIRCLE
  8
1
 62
7
  6
CONTINUOUS
 10
656.457404
 20
389.951000
 40
7.500000
  0
ARC
  8
1
 62
7
  6
CONTINUOUS
 10
656.457404
 20
389.951000
 40
9.000000
 50
-64.416998
 51
115.583002
  0
ARC
  8
1
 62
7
  6
CONTINUOUS
 10
656.457404
 20
389.951000
 40
10.000000
 50
-90.258931
 51
90.258931
  0
CIRCLE
  8
1
 62
7
  6
CONTINUOUS
 10
653.707404
 20
385.187860
 40
1.050000
  0
CIRCLE
  8
1
 62
7
  6
CONTINUOUS
 10
659.207404
 20
394.714140
 40
1.050000
  0
LINE
  8
1
 62
7
  6
CONTINUOUS
 10
660.343768
 20
381.833354
 11
600.814364
 21
353.333354
  0
LINE
  8
1
 62
7
  6
CONTINUOUS
 10
593.041636
 20
369.568646
 11
652.571041
 21
398.068646
  0
LINE
  8
1
 62
7
  6
CONTINUOUS
 10
660.343768
 20
398.068646
 11
600.814364
 21
426.568646
  0
CIRCLE
  8
1
 62
7
  6
CONTINUOUS
 10
594.178000
 20
413.687860
 40
1.050000
  0
CIRCLE
  8
1
 62
7
  6
CONTINUOUS
 10
599.678000
 20
423.214140
 40
1.050000
  0
CIRCLE
  8
1
 62
7
  6
CONTINUOUS
 10
594.178000
 20
356.687860
 40
1.050000
  0
CIRCLE
  8
1
 62
7
  6
CONTINUOUS
 10
599.678000
 20
366.214140
 40
1.050000
  0
LINE
  8
1
 62
7
  6
CONTINUOUS
 10
596.928000
 20
408.472738
 11
635.615299
 21
389.951000
  0
ARC
  8
1
 62
7
  6
CONTINUOUS
 10
596.928000
 20
361.451000
 40
9.000000
 50
115.583002
 51
-64.416998
  0
LINE
  8
1
 62
7
  6
CONTINUOUS
 10
596.928000
 20
371.429262
 11
558.240701
 21
389.951000
  0
LINE
  8
1
 62
7
  6
CONTINUOUS
 10
513.757404
 20
375.451000
 11
513.457404
 21
375.751000
  0
LINE
  8
1
 62
7
  6
CONTINUOUS
 10
515.157404
 20
375.451000
 11
513.757404
 21
375.451000
  0
LINE
  8
1
 62
7
  6
CONTINUOUS
 10
515.457404
 20
375.751000
 11
515.157404
 21
375.451000
  0
ARC
  8
1
 62
7
  6
CONTINUOUS
 10
525.928096
 20
380.450999
 40
2.300000
 50
-52.504750
 51
-34.301153
  0
LINE
  8
1
 62
7
  6
CONTINUOUS
 10
527.828096
 20
376.951001
 11
530.098595
 21
376.951001
  0
ARC
  8
1
 62
7
  6
CONTINUOUS
 10
530.098596
 20
377.250999
 40
0.300000
 50
-90.000000
 51
0.000000
  0
LINE
  8
1
 62
7
  6
CONTINUOUS
 10
515.457596
 20
378.251000
 11
515.757596
 21
377.951000
  0
LINE
  8
1
 62
7
  6
CONTINUOUS
 10
623.082793
 20
383.951000
 11
570.773207
 21
383.951000
  0
LINE
  8
1
 62
7
  6
CONTINUOUS
 10
570.773207
 20
395.951000
 11
623.082793
 21
395.951000
  0
LINE
  8
1
 62
7
  6
CONTINUOUS
 10
473.082793
 20
383.951000
 11
420.773207
 21
383.951000
  0
LINE
  8
1
 62
7
  6
CONTINUOUS
 10
473.082793
 20
395.951000
 11
420.773207
 21
395.951000
  0
LINE
  8
1
 62
7
  6
CONTINUOUS
 10
474.127169
 20
395.451000
 11
419.728831
 21
395.451000
  0
LINE
  8
1
 62
7
  6
CONTINUOUS
 10
474.127169
 20
384.451000
 11
419.728831
 21
384.451000
  0
LINE
  8
1
 62
7
  6
CONTINUOUS
 10
568.684456
 20
394.951000
 11
625.171544
 21
394.951000
  0
LINE
  8
1
 62
7
  6
CONTINUOUS
 10
625.171544
 20
384.951000
 11
568.684456
 21
384.951000
  0
LINE
  8
1
 62
7
  6
CONTINUOUS
 10
475.171544
 20
394.951000
 11
418.684456
 21
394.951000
  0
LINE
  8
1
 62
7
  6
CONTINUOUS
 10
418.684456
 20
384.951000
 11
475.171544
 21
384.951000
  0
ARC
  8
1
 62
7
  6
CONTINUOUS
 10
446.928000
 20
361.451000
 40
11.000000
 50
80.486201
 51
99.513799
  0
ARC
  8
1
 62
7
  6
CONTINUOUS
 10
446.928000
 20
361.451000
 40
11.000000
 50
-59.727359
 51
-29.320197
  0
ARC
  8
1
 62
7
  6
CONTINUOUS
 10
446.928000
 20
418.451000
 40
11.000000
 50
29.320197
 51
59.727359
  0
ARC
  8
1
 62
7
  6
CONTINUOUS
 10
446.928000
 20
418.451000
 40
11.000000
 50
-99.513799
 51
-80.486201
  0
ARC
  8
1
 62
7
  6
CONTINUOUS
 10
596.928000
 20
418.451000
 40
11.000000
 50
29.320197
 51
59.727359
  0
ARC
  8
1
 62
7
  6
CONTINUOUS
 10
596.928000
 20
418.451000
 40
11.000000
 50
-99.513799
 51
-80.486201
  0
ARC
  8
1
 62
7
  6
CONTINUOUS
 10
596.928000
 20
361.451000
 40
11.000000
 50
80.486201
 51
99.513799
  0
ARC
  8
1
 62
7
  6
CONTINUOUS
 10
596.928000
 20
361.451000
 40
11.000000
 50
-59.727359
 51
-29.320197
  0
LINE
  8
1
 62
7
  6
CONTINUOUS
 10
662.457404
 20
401.436281
 11
661.957404
 21
401.936281
  0
LINE
  8
1
 62
7
  6
CONTINUOUS
 10
662.457404
 20
397.951000
 11
662.457404
 21
401.436281
  0
LINE
  8
1
 62
7
  6
CONTINUOUS
 10
653.309616
 20
401.436281
 11
662.457404
 21
401.436281
  0
LINE
  8
1
 62
7
  6
CONTINUOUS
 10
662.457404
 20
378.465719
 11
661.957404
 21
377.965719
  0
LINE
  8
1
 62
7
  6
CONTINUOUS
 10
662.457404
 20
381.951000
 11
662.457404
 21
378.465719
  0
LINE
  8
1
 62
7
  6
CONTINUOUS
 10
653.309616
 20
378.465719
 11
662.457404
 21
378.465719
  0
LINE
  8
1
 62
7
  6
CONTINUOUS
 10
661.957404
 20
377.965719
 11
652.265241
 21
377.965719
  0
LINE
  8
1
 62
7
  6
CONTINUOUS
 10
666.457404
 20
409.936281
 11
646.457404
 21
409.936281
  0
LINE
  8
1
 62
7
  6
CONTINUOUS
 10
648.457404
 20
416.936281
 11
664.457404
 21
416.936281
  0
LINE
  8
1
 62
7
  6
CONTINUOUS
 10
648.457404
 20
416.936281
 11
646.457404
 21
409.936281
  0
LINE
  8
1
 62
7
  6
CONTINUOUS
 10
664.457404
 20
416.936281
 11
666.457404
 21
409.936281
  0
LINE
  8
1
 62
7
  6
CONTINUOUS
 10
663.457404
 20
402.436281
 11
663.457404
 21
407.936281
  0
LINE
  8
1
 62
7
  6
CONTINUOUS
 10
663.457404
 20
402.436281
 11
662.957404
 21
401.936281
  0
LINE
  8
1
 62
7
  6
CONTINUOUS
 10
666.457404
 20
408.236281
 11
666.457404
 21
409.936281
  0
LINE
  8
1
 62
7
  6
CONTINUOUS
 10
666.157404
 20
407.936281
 11
666.457404
 21
408.236281
  0
LINE
  8
1
 62
7
  6
CONTINUOUS
 10
646.457404
 20
409.936281
 11
646.457404
 21
408.236281
  0
LINE
  8
1
 62
7
  6
CONTINUOUS
 10
646.757404
 20
407.936281
 11
666.157404
 21
407.936281
  0
LINE
  8
1
 62
7
  6
CONTINUOUS
 10
646.457404
 20
408.236281
 11
646.757404
 21
407.936281
  0
LINE
  8
1
 62
7
  6
CONTINUOUS
 10
646.457404
 20
408.236281
 11
666.457404
 21
408.236281
  0
ARC
  8
1
 62
7
  6
CONTINUOUS
 10
676.927740
 20
417.518865
 40
1.307883
 50
-67.744453
 51
-36.977895
  0
ARC
  8
1
 62
7
  6
CONTINUOUS
 10
676.545717
 20
417.824615
 40
1.797039
 50
-37.439076
 51
-12.455052
  0
ARC
  8
1
 62
7
  6
CONTINUOUS
 10
675.730368
 20
418.047524
 40
2.641605
 50
-13.362019
 51
5.883683
  0
ARC
  8
1
 62
7
  6
CONTINUOUS
 10
675.005373
 20
418.007598
 40
3.367051
 50
5.294849
 51
21.562398
  0
ARC
  8
1
 62
7
  6
CONTINUOUS
 10
674.905126
 20
417.983589
 40
3.469137
 50
21.322695
 51
37.168755
  0
ARC
  8
1
 62
7
  6
CONTINUOUS
 10
675.382633
 20
418.342401
 40
2.871850
 50
37.220023
 51
55.100450
  0
ARC
  8
1
 62
7
  6
CONTINUOUS
 10
675.890849
 20
419.047753
 40
2.002625
 50
55.479727
 51
78.181128
  0
ARC
  8
1
 62
7
  6
CONTINUOUS
 10
676.036656
 20
419.644714
 40
1.388606
 50
79.024852
 51
108.193547
  0
LINE
  8
1
 62
7
  6
CONTINUOUS
 10
665.969480
 20
411.644017
 11
677.423798
 21
416.306661
  0
LINE
  8
1
 62
7
  6
CONTINUOUS
 10
664.587782
 20
416.479959
 11
675.603094
 21
420.963900
  0
LINE
  8
1
 62
7
  6
DASHDOT
 10
663.426224
 20
413.307939
 11
679.971688
 21
420.043008
  0
LINE
  8
1
 62
7
  6
CONTINUOUS
 10
649.457404
 20
407.936281
 11
649.457404
 21
403.280547
  0
LINE
  8
1
 62
7
  6
CONTINUOUS
 10
651.220865
 20
402.436281
 11
663.457404
 21
402.436281
  0
LINE
  8
1
 62
7
  6
CONTINUOUS
 10
652.265241
 20
401.936281
 11
662.957404
 21
401.936281
  0
LINE
  8
1
 62
7
  6
DASHDOT
 10
656.457404
 20
418.936281
 11
656.457404
 21
375.965719
  0
LINE
  8
1
 62
7
  6
CONTINUOUS
 10
675.057596
 20
400.951000
 11
684.457596
 21
400.951000
  0
LINE
  8
1
 62
7
  6
CONTINUOUS
 10
674.457596
 20
400.351000
 11
675.057596
 21
400.951000
  0
LINE
  8
1
 62
7
  6
CONTINUOUS
 10
684.457596
 20
378.951000
 11
675.057596
 21
378.951000
  0
LINE
  8
1
 62
7
  6
CONTINUOUS
 10
674.457596
 20
379.551000
 11
674.457596
 21
400.351000
  0
LINE
  8
1
 62
7
  6
CONTINUOUS
 10
675.057596
 20
378.951000
 11
674.457596
 21
379.551000
  0
LINE
  8
1
 62
7
  6
CONTINUOUS
 10
675.057596
 20
378.951000
 11
675.057596
 21
400.951000
  0
LINE
  8
1
 62
7
  6
CONTINUOUS
 10
684.457596
 20
360.951000
 11
685.457596
 21
359.951000
  0
LINE
  8
1
 62
7
  6
CONTINUOUS
 10
685.457596
 20
359.951000
 11
701.457596
 21
359.951000
  0
LINE
  8
1
 62
7
  6
CONTINUOUS
 10
702.457596
 20
360.951000
 11
701.457596
 21
359.951000
  0
LINE
  8
1
 62
7
  6
CONTINUOUS
 10
684.457596
 20
418.951000
 11
684.457596
 21
360.951000
  0
LINE
  8
1
 62
7
  6
CONTINUOUS
 10
685.457596
 20
419.951000
 11
684.457596
 21
418.951000
  0
LINE
  8
1
 62
7
  6
CONTINUOUS
 10
702.457596
 20
360.951000
 11
702.457596
 21
418.951000
  0
LINE
  8
1
 62
7
  6
CONTINUOUS
 10
701.457596
 20
419.951000
 11
685.457596
 21
419.951000
  0
LINE
  8
1
 62
7
  6
CONTINUOUS
 10
702.457596
 20
418.951000
 11
701.457596
 21
419.951000
  0
LINE
  8
1
 62
7
  6
CONTINUOUS
 10
701.457596
 20
359.951000
 11
701.457596
 21
419.951000
  0
LINE
  8
1
 62
7
  6
CONTINUOUS
 10
685.457596
 20
419.951000
 11
685.457596
 21
359.951000
  0
LINE
  8
1
 62
7
  6
CONTINUOUS
 10
700.457596
 20
359.951000
 11
700.457596
 21
419.951000
  0
LINE
  8
1
 62
7
  6
CONTINUOUS
 10
686.457596
 20
419.951000
 11
686.457596
 21
359.951000
  0
LINE
  8
1
 62
7
  6
CONTINUOUS
 10
689.724837
 20
409.085868
 11
686.457596
 21
409.085868
  0
LINE
  8
1
 62
7
  6
CONTINUOUS
 10
686.457596
 20
411.085868
 11
694.966216
 21
411.085868
  0
LINE
  8
1
 62
7
  6
CONTINUOUS
 10
700.207596
 20
413.085868
 11
686.457596
 21
413.085868
  0
LINE
  8
1
 62
7
  6
CONTINUOUS
 10
686.457596
 20
415.085868
 11
700.457596
 21
415.085868
  0
LINE
  8
1
 62
7
  6
CONTINUOUS
 10
700.457596
 20
417.085868
 11
686.457596
 21
417.085868
  0
LINE
  8
1
 62
7
  6
CONTINUOUS
 10
686.457596
 20
419.085868
 11
700.457596
 21
419.085868
  0
LINE
  8
1
 62
7
  6
CONTINUOUS
 10
698.457596
 20
419.951000
 11
698.457596
 21
412.418105
  0
LINE
  8
1
 62
7
  6
CONTINUOUS
 10
696.457596
 20
411.654947
 11
696.457596
 21
419.951000
  0
LINE
  8
1
 62
7
  6
CONTINUOUS
 10
694.457596
 20
419.951000
 11
694.457596
 21
410.891789
  0
LINE
  8
1
 62
7
  6
CONTINUOUS
 10
692.457596
 20
410.128632
 11
692.457596
 21
419.951000
  0
LINE
  8
1
 62
7
  6
CONTINUOUS
 10
690.457596
 20
419.951000
 11
690.457596
 21
409.365474
  0
LINE
  8
1
 62
7
  6
CONTINUOUS
 10
688.457596
 20
408.602316
 11
688.457596
 21
419.951000
  0
LINE
  8
1
 62
7
  6
CONTINUOUS
 10
697.190354
 20
370.816132
 11
700.457596
 21
370.816132
  0
LINE
  8
1
 62
7
  6
CONTINUOUS
 10
700.457596
 20
368.816132
 11
691.948975
 21
368.816132
  0
LINE
  8
1
 62
7
  6
CONTINUOUS
 10
686.707596
 20
366.816132
 11
700.457596
 21
366.816132
  0
LINE
  8
1
 62
7
  6
CONTINUOUS
 10
700.457596
 20
364.816132
 11
686.457596
 21
364.816132
  0
LINE
  8
1
 62
7
  6
CONTINUOUS
 10
686.457596
 20
362.816132
 11
700.457596
 21
362.816132
  0
LINE
  8
1
 62
7
  6
CONTINUOUS
 10
700.457596
 20
360.816132
 11
686.457596
 21
360.816132
  0
LINE
  8
1
 62
7
  6
CONTINUOUS
 10
688.457596
 20
359.951000
 11
688.457596
 21
367.483895
  0
LINE
  8
1
 62
7
  6
CONTINUOUS
 10
690.457596
 20
368.247053
 11
690.457596
 21
359.951000
  0
LINE
  8
1
 62
7
  6
CONTINUOUS
 10
692.457596
 20
359.951000
 11
692.457596
 21
369.010211
  0
LINE
  8
1
 62
7
  6
CONTINUOUS
 10
694.457596
 20
369.773368
 11
694.457596
 21
359.951000
  0
LINE
  8
1
 62
7
  6
CONTINUOUS
 10
696.457596
 20
359.951000
 11
696.457596
 21
370.536526
  0
LINE
  8
1
 62
7
  6
CONTINUOUS
 10
698.457596
 20
371.299684
 11
698.457596
 21
359.951000
  0
LINE
  8
1
 62
7
  6
CONTINUOUS
 10
674.157596
 20
395.951000
 11
674.457596
 21
395.651000
  0
LINE
  8
1
 62
7
  6
CONTINUOUS
 10
674.157596
 20
383.951000
 11
674.457596
 21
384.251000
  0
LINE
  8
1
 62
7
  6
CONTINUOUS
 10
674.157596
 20
395.951000
 11
674.157596
 21
383.951000
  0
LINE
  8
1
 62
7
  6
CONTINUOUS
 10
664.457404
 20
395.951000
 11
674.157596
 21
395.951000
  0
LINE
  8
1
 62
7
  6
CONTINUOUS
 10
674.157596
 20
383.951000
 11
664.457404
 21
383.951000
  0
LINE
  8
1
 62
7
  6
DASHDOT
 10
707.457596
 20
389.951000
 11
372.398596
 21
389.951000
  0
LINE
  8
1
 62
7
  6
CONTINUOUS
 10
412.428000
 20
427.951000
 11
411.928000
 21
428.451000
  0
LINE
  8
1
 62
7
  6
CONTINUOUS
 10
631.428000
 20
427.951000
 11
631.928000
 21
428.451000
  0
LINE
  8
1
 62
7
  6
CONTINUOUS
 10
631.428000
 20
351.951000
 11
631.928000
 21
351.451000
  0
LINE
  8
1
 62
7
  6
CONTINUOUS
 10
412.428000
 20
351.951000
 11
631.428000
 21
351.951000
  0
LINE
  8
1
 62
7
  6
CONTINUOUS
 10
412.428000
 20
351.951000
 11
411.928000
 21
351.451000
  0
LINE
  8
1
 62
7
  6
CONTINUOUS
 10
409.457404
 20
389.368497
 11
409.457404
 21
390.533503
  0
LINE
  8
1
 62
7
  6
CONTINUOUS
 10
409.957404
 20
389.129120
 11
409.957404
 21
390.772880
  0
LINE
  8
1
 62
7
  6
DIVIDE
 10
725.993946
 20
435.951000
 11
716.593946
 21
435.951000
  0
LINE
  8
1
 62
7
  6
DIVIDE
 10
716.593946
 20
435.951000
 11
715.993946
 21
435.351000
  0
LINE
  8
1
 62
7
  6
DIVIDE
 10
725.993946
 20
453.951000
 11
726.993946
 21
454.951000
  0
LINE
  8
1
 62
7
  6
DIVIDE
 10
742.993946
 20
454.951000
 11
726.993946
 21
454.951000
  0
LINE
  8
1
 62
7
  6
DIVIDE
 10
743.993946
 20
453.951000
 11
742.993946
 21
454.951000
  0
LINE
  8
1
 62
7
  6
DIVIDE
 10
716.593946
 20
413.951000
 11
725.993946
 21
413.951000
  0
LINE
  8
1
 62
7
  6
DIVIDE
 10
715.993946
 20
414.551000
 11
716.593946
 21
413.951000
  0
LINE
  8
1
 62
7
  6
DIVIDE
 10
726.993946
 20
394.951000
 11
725.993946
 21
395.951000
  0
LINE
  8
1
 62
7
  6
DIVIDE
 10
726.993946
 20
394.951000
 11
742.993946
 21
394.951000
  0
LINE
  8
1
 62
7
  6
DIVIDE
 10
742.993946
 20
394.951000
 11
743.993946
 21
395.951000
  0
LINE
  8
1
 62
7
  6
DIVIDE
 10
743.993946
 20
395.951000
 11
743.993946
 21
453.951000
  0
LINE
  8
1
 62
7
  6
DIVIDE
 10
715.993946
 20
435.351000
 11
715.993946
 21
414.551000
  0
LINE
  8
1
 62
7
  6
DIVIDE
 10
725.993946
 20
453.951000
 11
725.993946
 21
395.951000
  0
LINE
  8
1
 62
7
  6
DIVIDE
 10
727.993946
 20
454.951000
 11
727.993946
 21
394.951000
  0
LINE
  8
1
 62
7
  6
DIVIDE
 10
741.993946
 20
394.951000
 11
741.993946
 21
454.951000
  0
LINE
  8
1
 62
7
  6
DIVIDE
 10
726.993946
 20
394.951000
 11
726.993946
 21
454.951000
  0
LINE
  8
1
 62
7
  6
DIVIDE
 10
742.993946
 20
394.951000
 11
742.993946
 21
454.951000
  0
LINE
  8
1
 62
7
  6
DIVIDE
 10
716.593946
 20
435.951000
 11
716.593946
 21
413.951000
  0
LINE
  8
1
 62
7
  6
DIVIDE
 10
715.993946
 20
430.951000
 11
685.493946
 21
430.951000
  0
LINE
  8
1
 62
7
  6
DIVIDE
 10
715.993946
 20
418.951000
 11
704.993946
 21
418.951000
  0
LINE
  8
1
 62
7
  6
DASHDOT
 10
748.993946
 20
424.951000
 11
680.493946
 21
424.951000
  0
LINE
  8
1
 62
7
  6
CONTINUOUS
 10
377.398596
 20
394.951000
 11
382.398596
 21
394.951000
  0
LINE
  8
1
 62
7
  6
CONTINUOUS
 10
631.928000
 20
344.451000
 11
631.928000
 21
351.451000
  0
LINE
  8
1
 62
7
  6
CONTINUOUS
 10
631.428000
 20
343.951000
 11
631.928000
 21
344.451000
  0
LINE
  8
1
 62
7
  6
CONTINUOUS
 10
412.428000
 20
343.951000
 11
631.428000
 21
343.951000
  0
LINE
  8
1
 62
7
  6
CONTINUOUS
 10
411.928000
 20
344.451000
 11
412.428000
 21
343.951000
  0
LINE
  8
1
 62
7
  6
CONTINUOUS
 10
411.928000
 20
351.451000
 11
411.928000
 21
344.451000
  0
LINE
  8
1
 62
7
  6
CONTINUOUS
 10
412.428000
 20
435.951000
 11
411.928000
 21
435.451000
  0
LINE
  8
1
 62
7
  6
CONTINUOUS
 10
411.928000
 20
435.451000
 11
411.928000
 21
428.451000
  0
LINE
  8
1
 62
7
  6
CONTINUOUS
 10
631.928000
 20
435.451000
 11
631.428000
 21
435.951000
  0
LINE
  8
1
 62
7
  6
CONTINUOUS
 10
631.928000
 20
428.451000
 11
631.928000
 21
435.451000
  0
LINE
  8
1
 62
7
  6
DIVIDE
 10
412.428000
 20
505.951000
 11
411.928000
 21
505.451000
  0
LINE
  8
1
 62
7
  6
DIVIDE
 10
411.928000
 20
505.451000
 11
411.928000
 21
494.451000
  0
LINE
  8
1
 62
7
  6
DIVIDE
 10
631.428000
 20
505.951000
 11
412.428000
 21
505.951000
  0
LINE
  8
1
 62
7
  6
DIVIDE
 10
631.928000
 20
505.451000
 11
631.428000
 21
505.951000
  0
LINE
  8
1
 62
7
  6
DIVIDE
 10
631.928000
 20
494.451000
 11
631.928000
 21
505.451000
  0
LINE
  8
1
 62
7
  6
DASHDOT
 10
521.928000
 20
510.951000
 11
521.928000
 21
338.951000
  0
LINE
  8
1
 62
7
  6
CONTINUOUS
 10
496.928000
 20
366.951000
 11
496.928000
 21
356.951000
  0
LINE
  8
1
 62
7
  6
CONTINUOUS
 10
524.928000
 20
366.951000
 11
524.928000
 21
356.951000
  0
LINE
  8
1
 62
7
  6
DASHDOT
 10
504.928000
 20
368.861547
 11
504.928000
 21
354.992547
  0
LINE
  8
1
 62
7
  6
CONTINUOUS
 10
526.928000
 20
366.951000
 11
526.928000
 21
356.951000
  0
LINE
  8
1
 62
7
  6
CONTINUOUS
 10
526.928000
 20
356.951000
 11
494.928000
 21
356.951000
  0
LINE
  8
1
 62
7
  6
CONTINUOUS
 10
494.928000
 20
356.951000
 11
494.928000
 21
366.951000
  0
LINE
  8
1
 62
7
  6
CONTINUOUS
 10
494.928000
 20
366.951000
 11
526.928000
 21
366.951000
  0
LINE
  8
1
 62
7
  6
HIDDEN
 10
500.928000
 20
366.951000
 11
500.928000
 21
356.951000
  0
LINE
  8
1
 62
7
  6
HIDDEN
 10
508.928000
 20
356.951000
 11
508.928000
 21
366.951000
  0
LINE
  8
1
 62
7
  6
CONTINUOUS
 10
486.928000
 20
369.951000
 11
486.928000
 21
353.951000
  0
LINE
  8
1
 62
7
  6
CONTINUOUS
 10
491.928000
 20
369.951000
 11
491.928000
 21
353.951000
  0
LINE
  8
1
 62
7
  6
CONTINUOUS
 10
493.928000
 20
364.051000
 11
492.928000
 21
364.451000
  0
LINE
  8
1
 62
7
  6
CONTINUOUS
 10
493.928000
 20
359.451000
 11
493.928000
 21
364.451000
  0
LINE
  8
1
 62
7
  6
CONTINUOUS
 10
493.928000
 20
359.851000
 11
492.928000
 21
359.451000
  0
LINE
  8
1
 62
7
  6
CONTINUOUS
 10
491.928000
 20
353.951000
 11
492.928000
 21
354.951000
  0
LINE
  8
1
 62
7
  6
CONTINUOUS
 10
492.928000
 20
368.951000
 11
492.928000
 21
354.951000
  0
LINE
  8
1
 62
7
  6
CONTINUOUS
 10
491.928000
 20
353.951000
 11
486.928000
 21
353.951000
  0
LINE
  8
1
 62
7
  6
CONTINUOUS
 10
485.928000
 20
368.951000
 11
486.928000
 21
369.951000
  0
LINE
  8
1
 62
7
  6
CONTINUOUS
 10
486.928000
 20
369.951000
 11
491.928000
 21
369.951000
  0
LINE
  8
1
 62
7
  6
CONTINUOUS
 10
485.928000
 20
354.951000
 11
485.928000
 21
368.951000
  0
LINE
  8
1
 62
7
  6
CONTINUOUS
 10
491.928000
 20
369.951000
 11
492.928000
 21
368.951000
  0
LINE
  8
1
 62
7
  6
CONTINUOUS
 10
486.928000
 20
353.951000
 11
485.928000
 21
354.951000
  0
LINE
  8
1
 62
7
  6
CONTINUOUS
 10
494.928000
 20
359.851000
 11
493.928000
 21
359.851000
  0
LINE
  8
1
 62
7
  6
CONTINUOUS
 10
494.928000
 20
364.051000
 11
493.928000
 21
364.051000
  0
LINE
  8
1
 62
7
  6
CONTINUOUS
 10
492.928000
 20
364.451000
 11
494.928000
 21
364.451000
  0
LINE
  8
1
 62
7
  6
CONTINUOUS
 10
494.928000
 20
359.451000
 11
492.928000
 21
359.451000
  0
LINE
  8
1
 62
7
  6
CONTINUOUS
 10
487.928000
 20
368.951000
 11
491.928000
 21
368.951000
  0
LINE
  8
1
 62
7
  6
CONTINUOUS
 10
491.928000
 20
367.951000
 11
488.928000
 21
367.951000
  0
LINE
  8
1
 62
7
  6
CONTINUOUS
 10
489.928000
 20
366.951000
 11
491.928000
 21
366.951000
  0
LINE
  8
1
 62
7
  6
CONTINUOUS
 10
491.928000
 20
365.951000
 11
490.928000
 21
365.951000
  0
LINE
  8
1
 62
7
  6
CONTINUOUS
 10
490.928000
 20
354.951000
 11
486.928000
 21
354.951000
  0
LINE
  8
1
 62
7
  6
CONTINUOUS
 10
486.928000
 20
355.951000
 11
489.928000
 21
355.951000
  0
LINE
  8
1
 62
7
  6
CONTINUOUS
 10
488.928000
 20
356.951000
 11
486.928000
 21
356.951000
  0
LINE
  8
1
 62
7
  6
CONTINUOUS
 10
486.928000
 20
357.951000
 11
487.928000
 21
357.951000
  0
LINE
  8
1
 62
7
  6
CONTINUOUS
 10
491.928000
 20
369.451000
 11
487.428000
 21
369.451000
  0
LINE
  8
1
 62
7
  6
CONTINUOUS
 10
488.428000
 20
368.451000
 11
491.928000
 21
368.451000
  0
LINE
  8
1
 62
7
  6
CONTINUOUS
 10
491.928000
 20
367.451000
 11
489.428000
 21
367.451000
  0
LINE
  8
1
 62
7
  6
CONTINUOUS
 10
490.428000
 20
366.451000
 11
491.928000
 21
366.451000
  0
LINE
  8
1
 62
7
  6
CONTINUOUS
 10
486.928000
 20
354.451000
 11
491.428000
 21
354.451000
  0
LINE
  8
1
 62
7
  6
CONTINUOUS
 10
490.428000
 20
355.451000
 11
486.928000
 21
355.451000
  0
LINE
  8
1
 62
7
  6
CONTINUOUS
 10
486.928000
 20
356.451000
 11
489.428000
 21
356.451000
  0
LINE
  8
1
 62
7
  6
CONTINUOUS
 10
488.428000
 20
357.451000
 11
486.928000
 21
357.451000
  0
ARC
  8
1
 62
7
  6
CONTINUOUS
 10
525.928096
 20
383.233486
 40
2.300000
 50
-52.504750
 51
-50.804464
  0
LINE
  8
1
 62
7
  6
CONTINUOUS
 10
477.549496
 20
413.769068
 11
450.814364
 21
426.568646
  0
CIRCLE
  8
1
 62
7
  6
CONTINUOUS
 10
526.028000
 20
445.251000
 40
8.600000
  0
CIRCLE
  8
1
 62
7
  6
CONTINUOUS
 10
508.474373
 20
408.917891
 40
3.750000
  0
CIRCLE
  8
1
 62
7
  6
CONTINUOUS
 10
535.381628
 20
408.917891
 40
3.750000
  0
CIRCLE
  8
1
 62
7
  6
CONTINUOUS
 10
526.028000
 20
445.251000
 40
8.900000
  0
CIRCLE
  8
1
 62
7
  6
CONTINUOUS
 10
535.381628
 20
408.917891
 40
2.400000
  0
CIRCLE
  8
1
 62
7
  6
CONTINUOUS
 10
526.797892
 20
404.484340
 40
2.000000
  0
CIRCLE
  8
1
 62
7
  6
CONTINUOUS
 10
517.058109
 20
404.484340
 40
3.000000
  0
CIRCLE
  8
1
 62
7
  6
CONTINUOUS
 10
517.058109
 20
404.484340
 40
2.000000
  0
CIRCLE
  8
1
 62
7
  6
CONTINUOUS
 10
526.797892
 20
404.484340
 40
2.800000
  0
CIRCLE
  8
1
 62
7
  6
CONTINUOUS
 10
508.474373
 20
408.917891
 40
2.400000
  0
CIRCLE
  8
1
 62
7
  6
CONTINUOUS
 10
521.928000
 20
426.451000
 40
30.000000
  0
ARC
  8
1
 62
7
  6
CONTINUOUS
 10
541.695944
 20
437.451000
 40
0.800000
 50
-90.000000
 51
0.000000
  0
ARC
  8
1
 62
7
  6
CONTINUOUS
 10
541.695944
 20
438.851000
 40
0.800000
 50
0.000000
 51
90.000000
  0
ARC
  8
1
 62
7
  6
CONTINUOUS
 10
538.695944
 20
438.851000
 40
0.800000
 50
90.000000
 51
180.000000
  0
ARC
  8
1
 62
7
  6
CONTINUOUS
 10
538.695944
 20
437.451000
 40
0.800000
 50
180.000000
 51
-90.000000
  0
ARC
  8
1
 62
7
  6
CONTINUOUS
 10
541.695944
 20
437.451000
 40
0.500000
 50
-90.000000
 51
0.000000
  0
ARC
  8
1
 62
7
  6
CONTINUOUS
 10
541.695944
 20
438.851000
 40
0.500000
 50
0.000000
 51
90.000000
  0
ARC
  8
1
 62
7
  6
CONTINUOUS
 10
538.695944
 20
438.851000
 40
0.500000
 50
90.000000
 51
180.000000
  0
ARC
  8
1
 62
7
  6
CONTINUOUS
 10
538.695944
 20
437.451000
 40
0.500000
 50
180.000000
 51
-90.000000
  0
ARC
  8
1
 62
7
  6
CONTINUOUS
 10
541.228000
 20
433.451000
 40
1.000000
 50
0.000000
 51
90.000000
  0
ARC
  8
1
 62
7
  6
CONTINUOUS
 10
541.228000
 20
418.551000
 40
1.000000
 50
-90.000000
 51
0.000000
  0
ARC
  8
1
 62
7
  6
CONTINUOUS
 10
502.628000
 20
433.451000
 40
1.000000
 50
90.000000
 51
180.000000
  0
ARC
  8
1
 62
7
  6
CONTINUOUS
 10
502.628000
 20
418.551000
 40
1.000000
 50
180.000000
 51
-90.000000
  0
ARC
  8
1
 62
7
  6
CONTINUOUS
 10
521.928000
 20
368.451000
 40
1.500000
 50
-90.000000
 51
-32.230953
  0
ARC
  8
1
 62
7
  6
CONTINUOUS
 10
521.928000
 20
368.451000
 40
1.500000
 50
-147.769047
 51
-90.000000
  0
ARC
  8
1
 62
7
  6
CONTINUOUS
 10
526.028000
 20
445.251000
 40
6.669721
 50
81.463067
 51
171.377054
  0
ARC
  8
1
 62
7
  6
CONTINUOUS
 10
526.028000
 20
445.251000
 40
6.669721
 50
-98.536933
 51
-28.955504
  0
ARC
  8
1
 62
7
  6
CONTINUOUS
 10
526.028000
 20
445.251000
 40
6.669721
 50
-28.955504
 51
-8.622946
  0
ARC
  8
1
 62
7
  6
CONTINUOUS
 10
506.928000
 20
452.431762
 40
0.500000
 50
29.522530
 51
-149.522530
  0
ARC
  8
1
 62
7
  6
CONTINUOUS
 10
509.249453
 20
453.640234
 40
0.500000
 50
24.522530
 51
-154.522530
  0
ARC
  8
1
 62
7
  6
CONTINUOUS
 10
511.667396
 20
454.641779
 40
0.500000
 50
19.522530
 51
-159.522530
  0
ARC
  8
1
 62
7
  6
CONTINUOUS
 10
514.163429
 20
455.428775
 40
0.500000
 50
14.522530
 51
-164.522530
  0
ARC
  8
1
 62
7
  6
CONTINUOUS
 10
516.718555
 20
455.995233
 40
0.500000
 50
9.522530
 51
-169.522530
  0
ARC
  8
1
 62
7
  6
CONTINUOUS
 10
519.313328
 20
456.336841
 40
0.500000
 50
4.522530
 51
-174.522530
  0
ARC
  8
1
 62
7
  6
CONTINUOUS
 10
527.137446
 20
455.995233
 40
0.500000
 50
-10.477470
 51
170.477470
  0
ARC
  8
1
 62
7
  6
CONTINUOUS
 10
524.542673
 20
456.336841
 40
0.500000
 50
-5.477470
 51
175.477470
  0
ARC
  8
1
 62
7
  6
CONTINUOUS
 10
521.928000
 20
456.451000
 40
0.500000
 50
-0.477470
 51
-179.522530
  0
ARC
  8
1
 62
7
  6
CONTINUOUS
 10
492.383768
 20
421.241555
 40
0.500000
 50
99.522530
 51
-79.522530
  0
ARC
  8
1
 62
7
  6
CONTINUOUS
 10
492.042160
 20
423.836328
 40
0.500000
 50
94.522530
 51
-84.522530
  0
ARC
  8
1
 62
7
  6
CONTINUOUS
 10
492.383768
 20
431.660445
 40
0.500000
 50
79.522530
 51
-99.522530
  0
ARC
  8
1
 62
7
  6
CONTINUOUS
 10
492.042160
 20
429.065672
 40
0.500000
 50
84.522530
 51
-94.522530
  0
ARC
  8
1
 62
7
  6
CONTINUOUS
 10
491.928000
 20
426.451000
 40
0.500000
 50
89.522530
 51
-89.522530
  0
ARC
  8
1
 62
7
  6
CONTINUOUS
 10
526.028000
 20
445.251000
 40
9.900000
 50
-41.013060
 51
-138.986940
  0
ARC
  8
1
 62
7
  6
CONTINUOUS
 10
521.928000
 20
426.451000
 40
26.800000
 50
-22.370668
 51
19.169156
  0
ARC
  8
1
 62
7
  6
CONTINUOUS
 10
521.928000
 20
426.451000
 40
26.300000
 50
-21.642942
 51
18.396396
  0
ARC
  8
1
 62
7
  6
CONTINUOUS
 10
521.928000
 20
426.451000
 40
26.800000
 50
160.830844
 51
-157.629332
  0
ARC
  8
1
 62
7
  6
CONTINUOUS
 10
521.928000
 20
426.451000
 40
26.300000
 50
161.603604
 51
-158.357058
  0
ARC
  8
1
 62
7
  6
CONTINUOUS
 10
521.928000
 20
426.451000
 40
29.638319
 50
131.164388
 51
104.835612
  0
ARC
  8
1
 62
7
  6
CONTINUOUS
 10
521.928000
 20
426.451000
 40
29.971176
 50
104.984397
 51
131.015603
  0
ARC
  8
1
 62
7
  6
CONTINUOUS
 10
515.128000
 20
437.451000
 40
0.800000
 50
-90.000000
 51
0.000000
  0
ARC
  8
1
 62
7
  6
CONTINUOUS
 10
515.128000
 20
438.851000
 40
0.800000
 50
0.000000
 51
90.000000
  0
ARC
  8
1
 62
7
  6
CONTINUOUS
 10
512.128000
 20
438.851000
 40
0.800000
 50
90.000000
 51
180.000000
  0
ARC
  8
1
 62
7
  6
CONTINUOUS
 10
512.128000
 20
437.451000
 40
0.800000
 50
180.000000
 51
-90.000000
  0
ARC
  8
1
 62
7
  6
CONTINUOUS
 10
515.128000
 20
437.451000
 40
0.500000
 50
-90.000000
 51
0.000000
  0
ARC
  8
1
 62
7
  6
CONTINUOUS
 10
515.128000
 20
438.851000
 40
0.500000
 50
0.000000
 51
90.000000
  0
ARC
  8
1
 62
7
  6
CONTINUOUS
 10
512.128000
 20
438.851000
 40
0.500000
 50
90.000000
 51
180.000000
  0
ARC
  8
1
 62
7
  6
CONTINUOUS
 10
512.128000
 20
437.451000
 40
0.500000
 50
180.000000
 51
-90.000000
  0
LINE
  8
1
 62
7
  6
CONTINUOUS
 10
520.255075
 20
367.651000
 11
523.529882
 21
367.651000
  0
LINE
  8
1
 62
7
  6
CONTINUOUS
 10
523.821302
 20
368.129806
 11
523.529882
 21
367.651000
  0
LINE
  8
1
 62
7
  6
CONTINUOUS
 10
520.034699
 20
368.129806
 11
520.255075
 21
367.651000
  0
LINE
  8
1
 62
7
  6
CONTINUOUS
 10
519.428000
 20
371.251000
 11
520.034699
 21
368.129806
  0
LINE
  8
1
 62
7
  6
CONTINUOUS
 10
524.428000
 20
371.251000
 11
523.821302
 21
368.129806
  0
LINE
  8
1
 62
7
  6
CONTINUOUS
 10
519.428000
 20
374.051000
 11
524.428000
 21
374.051000
  0
LINE
  8
1
 62
7
  6
CONTINUOUS
 10
519.428000
 20
374.051000
 11
519.628000
 21
374.251000
  0
LINE
  8
1
 62
7
  6
CONTINUOUS
 10
524.428000
 20
374.051000
 11
524.228000
 21
374.251000
  0
LINE
  8
1
 62
7
  6
CONTINUOUS
 10
519.428000
 20
371.251000
 11
519.428000
 21
374.051000
  0
LINE
  8
1
 62
7
  6
CONTINUOUS
 10
524.428000
 20
371.251000
 11
519.428000
 21
371.251000
  0
LINE
  8
1
 62
7
  6
CONTINUOUS
 10
524.428000
 20
374.051000
 11
524.428000
 21
371.251000
  0
LINE
  8
1
 62
7
  6
CONTINUOUS
 10
519.628000
 20
374.251000
 11
524.228000
 21
374.251000
  0
LINE
  8
1
 62
7
  6
CONTINUOUS
 10
524.128000
 20
374.251000
 11
519.728000
 21
374.251000
  0
LINE
  8
1
 62
7
  6
CONTINUOUS
 10
519.528000
 20
374.451000
 11
519.528000
 21
374.851000
  0
LINE
  8
1
 62
7
  6
CONTINUOUS
 10
524.328000
 20
374.851000
 11
524.328000
 21
374.451000
  0
LINE
  8
1
 62
7
  6
CONTINUOUS
 10
516.678685
 20
464.051000
 11
527.178685
 21
464.051000
  0
LINE
  8
1
 62
7
  6
CONTINUOUS
 10
527.178685
 20
464.051000
 11
527.177529
 21
456.487636
  0
LINE
  8
1
 62
7
  6
CONTINUOUS
 10
516.678685
 20
464.051000
 11
516.677540
 21
456.487636
  0
LINE
  8
1
 62
7
  6
CONTINUOUS
 10
526.327722
 20
475.551000
 11
525.827722
 21
476.051000
  0
LINE
  8
1
 62
7
  6
CONTINUOUS
 10
517.529366
 20
475.551000
 11
518.029366
 21
476.051000
  0
LINE
  8
1
 62
7
  6
CONTINUOUS
 10
526.327722
 20
475.551000
 11
526.430303
 21
464.051000
  0
LINE
  8
1
 62
7
  6
CONTINUOUS
 10
517.529366
 20
475.551000
 11
517.328685
 21
464.051000
  0
LINE
  8
1
 62
7
  6
CONTINUOUS
 10
526.327722
 20
475.551000
 11
517.529366
 21
475.551000
  0
LINE
  8
1
 62
7
  6
CONTINUOUS
 10
518.029366
 20
476.051000
 11
525.827722
 21
476.051000
  0
LINE
  8
1
 62
7
  6
CONTINUOUS
 10
537.895944
 20
438.851000
 11
537.895944
 21
437.451000
  0
LINE
  8
1
 62
7
  6
CONTINUOUS
 10
541.695944
 20
439.651000
 11
538.695944
 21
439.651000
  0
LINE
  8
1
 62
7
  6
CONTINUOUS
 10
542.495944
 20
437.451000
 11
542.495944
 21
438.851000
  0
LINE
  8
1
 62
7
  6
CONTINUOUS
 10
538.695944
 20
436.651000
 11
541.695944
 21
436.651000
  0
LINE
  8
1
 62
7
  6
CONTINUOUS
 10
538.195944
 20
437.451000
 11
538.195944
 21
438.851000
  0
LINE
  8
1
 62
7
  6
CONTINUOUS
 10
541.695944
 20
436.951000
 11
538.695944
 21
436.951000
  0
LINE
  8
1
 62
7
  6
CONTINUOUS
 10
542.195944
 20
438.851000
 11
542.195944
 21
437.451000
  0
LINE
  8
1
 62
7
  6
CONTINUOUS
 10
538.695944
 20
439.351000
 11
541.695944
 21
439.351000
  0
LINE
  8
1
 62
7
  6
CONTINUOUS
 10
518.328000
 20
381.451000
 11
518.328000
 21
375.051000
  0
LINE
  8
1
 62
7
  6
CONTINUOUS
 10
518.528000
 20
374.851000
 11
525.328000
 21
374.851000
  0
LINE
  8
1
 62
7
  6
CONTINUOUS
 10
525.528000
 20
375.051000
 11
525.528000
 21
381.451000
  0
LINE
  8
1
 62
7
  6
CONTINUOUS
 10
519.507813
 20
449.131994
 11
520.192022
 21
448.480013
  0
LINE
  8
1
 62
7
  6
CONTINUOUS
 10
519.433672
 20
446.251000
 11
519.507813
 21
449.131994
  0
LINE
  8
1
 62
7
  6
CONTINUOUS
 10
532.548188
 20
441.370006
 11
531.863979
 21
442.021987
  0
LINE
  8
1
 62
7
  6
CONTINUOUS
 10
532.622329
 20
444.251000
 11
532.548188
 21
441.370006
  0
LINE
  8
1
 62
7
  6
CONTINUOUS
 10
521.028000
 20
444.251000
 11
521.028000
 21
446.251000
  0
LINE
  8
1
 62
7
  6
CONTINUOUS
 10
531.028000
 20
444.251000
 11
521.028000
 21
444.251000
  0
LINE
  8
1
 62
7
  6
CONTINUOUS
 10
531.028000
 20
446.251000
 11
531.028000
 21
444.251000
  0
LINE
  8
1
 62
7
  6
CONTINUOUS
 10
521.028000
 20
446.251000
 11
531.028000
 21
446.251000
  0
LINE
  8
1
 62
7
  6
CONTINUOUS
 10
514.367099
 20
455.048855
 11
514.178773
 21
455.403044
  0
LINE
  8
1
 62
7
  6
CONTINUOUS
 10
502.447306
 20
448.710989
 11
502.258981
 21
449.065178
  0
LINE
  8
1
 62
7
  6
CONTINUOUS
 10
514.367099
 20
455.048855
 11
502.447306
 21
448.710989
  0
LINE
  8
1
 62
7
  6
CONTINUOUS
 10
542.228000
 20
418.551000
 11
542.228000
 21
433.451000
  0
LINE
  8
1
 62
7
  6
CONTINUOUS
 10
541.228000
 20
434.451000
 11
502.628000
 21
434.451000
  0
LINE
  8
1
 62
7
  6
CONTINUOUS
 10
496.613973
 20
435.251000
 11
547.242028
 21
435.251000
  0
LINE
  8
1
 62
7
  6
CONTINUOUS
 10
502.628000
 20
417.551000
 11
541.228000
 21
417.551000
  0
LINE
  8
1
 62
7
  6
CONTINUOUS
 10
501.628000
 20
433.451000
 11
501.628000
 21
418.551000
  0
LINE
  8
1
 62
7
  6
CONTINUOUS
 10
497.144942
 20
416.251000
 11
546.711059
 21
416.251000
  0
LINE
  8
1
 62
7
  6
CONTINUOUS
 10
497.482142
 20
416.751000
 11
546.373859
 21
416.751000
  0
LINE
  8
1
 62
7
  6
CONTINUOUS
 10
496.972039
 20
434.751000
 11
546.883962
 21
434.751000
  0
LINE
  8
1
 62
7
  6
CONTINUOUS
 10
512.128000
 20
439.651000
 11
515.128000
 21
439.651000
  0
LINE
  8
1
 62
7
  6
CONTINUOUS
 10
511.328000
 20
438.851000
 11
511.328000
 21
437.451000
  0
LINE
  8
1
 62
7
  6
CONTINUOUS
 10
515.928000
 20
437.451000
 11
515.928000
 21
438.851000
  0
LINE
  8
1
 62
7
  6
CONTINUOUS
 10
512.128000
 20
436.651000
 11
515.128000
 21
436.651000
  0
LINE
  8
1
 62
7
  6
CONTINUOUS
 10
511.628000
 20
437.451000
 11
511.628000
 21
438.851000
  0
LINE
  8
1
 62
7
  6
CONTINUOUS
 10
515.128000
 20
436.951000
 11
512.128000
 21
436.951000
  0
LINE
  8
1
 62
7
  6
CONTINUOUS
 10
515.628000
 20
438.851000
 11
515.628000
 21
437.451000
  0
LINE
  8
1
 62
7
  6
CONTINUOUS
 10
512.128000
 20
439.351000
 11
515.128000
 21
439.351000
  0
LINE
  8
1
 62
7
  6
CONTINUOUS
 10
524.328000
 20
374.451000
 11
524.128000
 21
374.251000
  0
LINE
  8
1
 62
7
  6
CONTINUOUS
 10
519.528000
 20
374.451000
 11
519.728000
 21
374.251000
  0
LINE
  8
1
 62
7
  6
CONTINUOUS
 10
518.528000
 20
374.851000
 11
518.328000
 21
375.051000
  0
LINE
  8
1
 62
7
  6
CONTINUOUS
 10
525.528000
 20
375.051000
 11
525.328000
 21
374.851000
  0
LINE
  8
1
 62
7
  6
CONTINUOUS
 10
525.528000
 20
375.051000
 11
518.328000
 21
375.051000
  0
LINE
  8
1
 62
7
  6
CONTINUOUS
 10
519.528000
 20
374.451000
 11
524.328000
 21
374.451000
  0
LINE
  8
1
 62
7
  6
DASHDOT
 10
504.928000
 20
403.996794
 11
504.928000
 21
348.888000
  0
LINE
  8
1
 62
7
  6
CONTINUOUS
 10
500.928000
 20
405.026715
 11
500.928000
 21
366.951000
  0
LINE
  8
1
 62
7
  6
CONTINUOUS
 10
500.928000
 20
356.951000
 11
500.928000
 21
351.951000
  0
LINE
  8
1
 62
7
  6
CONTINUOUS
 10
508.928000
 20
351.951000
 11
508.928000
 21
356.951000
  0
LINE
  8
1
 62
7
  6
CONTINUOUS
 10
508.928000
 20
366.951000
 11
508.928000
 21
399.413988
  0
LINE
  8
1
 62
7
  6
CONTINUOUS
 10
631.428000
 20
435.951000
 11
550.384107
 21
435.951000
  0
LINE
  8
1
 62
7
  6
CONTINUOUS
 10
493.471894
 20
435.951000
 11
412.428000
 21
435.951000
  0
LINE
  8
1
 62
7
  6
CONTINUOUS
 10
412.428000
 20
427.951000
 11
491.965524
 21
427.951000
  0
LINE
  8
1
 62
7
  6
CONTINUOUS
 10
551.890477
 20
427.951000
 11
631.428000
 21
427.951000
  0
LINE
  8
1
 62
7
  6
CONTINUOUS
 10
510.343768
 20
381.833354
 11
508.928000
 21
381.155548
  0
LINE
  8
1
 62
7
  6
CONTINUOUS
 10
500.928000
 20
377.325508
 11
450.814364
 21
353.333354
  0
ARC
  8
1
 62
7
  6
CONTINUOUS
 10
506.457404
 20
389.951000
 40
7.500000
 50
137.498004
 51
-137.498004
  0
ARC
  8
1
 62
7
  6
CONTINUOUS
 10
506.457404
 20
389.951000
 40
8.500000
 50
130.580673
 51
-130.580673
  0
LINE
  8
1
 62
7
  6
CONTINUOUS
 10
443.041636
 20
369.568646
 11
500.928000
 21
397.282032
  0
LINE
  8
1
 62
7
  6
CONTINUOUS
 10
510.343768
 20
398.068646
 11
508.928000
 21
398.746452
  0
LINE
  8
1
 62
7
  6
CONTINUOUS
 10
500.928000
 20
402.576492
 11
450.814364
 21
426.568646
  0
ARC
  8
1
 62
7
  6
CONTINUOUS
 10
506.457404
 20
389.951000
 40
7.500000
 50
-70.766857
 51
-43.162805
  0
ARC
  8
1
 62
7
  6
CONTINUOUS
 10
506.457404
 20
389.951000
 40
7.500000
 50
43.162805
 51
70.766857
  0
ARC
  8
1
 62
7
  6
CONTINUOUS
 10
506.457404
 20
389.951000
 40
8.500000
 50
-73.102622
 51
-49.939242
  0
ARC
  8
1
 62
7
  6
CONTINUOUS
 10
506.457404
 20
389.951000
 40
8.500000
 50
49.939242
 51
73.102622
  0
ARC
  8
1
 62
7
  6
CONTINUOUS
 10
506.457404
 20
389.951000
 40
9.000000
 50
-64.416998
 51
-52.566223
  0
ARC
  8
1
 62
7
  6
CONTINUOUS
 10
506.457404
 20
389.951000
 40
9.000000
 50
52.566223
 51
74.067141
  0
ARC
  8
1
 62
7
  6
CONTINUOUS
 10
506.457404
 20
389.951000
 40
10.000000
 50
-75.696415
 51
-57.234684
  0
LINE
  8
1
 62
7
  6
CONTINUOUS
 10
513.457404
 20
375.751000
 11
513.457404
 21
381.451000
  0
LINE
  8
1
 62
7
  6
CONTINUOUS
 10
513.757404
 20
375.451000
 11
513.757404
 21
381.451000
  0
LINE
  8
1
 62
7
  6
CONTINUOUS
 10
515.157404
 20
381.451000
 11
515.157404
 21
375.451000
  0
LINE
  8
1
 62
7
  6
CONTINUOUS
 10
515.457404
 20
381.451000
 11
515.457404
 21
375.751000
  0
LINE
  8
1
 62
7
  6
CONTINUOUS
 10
515.757596
 20
381.451000
 11
515.757596
 21
377.951000
  0
LINE
  8
1
 62
7
  6
CONTINUOUS
 10
511.928000
 20
381.451000
 11
531.928000
 21
381.451000
  0
LINE
  8
1
 62
7
  6
CONTINUOUS
 10
539.928000
 20
396.951000
 11
539.928000
 21
380.951000
  0
LINE
  8
1
 62
7
  6
CONTINUOUS
 10
534.928000
 20
396.951000
 11
534.928000
 21
380.951000
  0
LINE
  8
1
 62
7
  6
CONTINUOUS
 10
532.928000
 20
391.051000
 11
533.928000
 21
391.451000
  0
LINE
  8
1
 62
7
  6
CONTINUOUS
 10
532.928000
 20
386.451000
 11
532.928000
 21
391.451000
  0
LINE
  8
1
 62
7
  6
CONTINUOUS
 10
532.928000
 20
386.851000
 11
533.928000
 21
386.451000
  0
LINE
  8
1
 62
7
  6
CONTINUOUS
 10
534.928000
 20
380.951000
 11
533.928000
 21
381.951000
  0
LINE
  8
1
 62
7
  6
CONTINUOUS
 10
533.928000
 20
395.951000
 11
533.928000
 21
381.951000
  0
LINE
  8
1
 62
7
  6
CONTINUOUS
 10
534.928000
 20
380.951000
 11
539.928000
 21
380.951000
  0
LINE
  8
1
 62
7
  6
CONTINUOUS
 10
540.928000
 20
395.951000
 11
539.928000
 21
396.951000
  0
LINE
  8
1
 62
7
  6
CONTINUOUS
 10
539.928000
 20
396.951000
 11
534.928000
 21
396.951000
  0
LINE
  8
1
 62
7
  6
CONTINUOUS
 10
540.928000
 20
381.951000
 11
540.928000
 21
395.951000
  0
LINE
  8
1
 62
7
  6
CONTINUOUS
 10
534.928000
 20
396.951000
 11
533.928000
 21
395.951000
  0
LINE
  8
1
 62
7
  6
CONTINUOUS
 10
539.928000
 20
380.951000
 11
540.928000
 21
381.951000
  0
LINE
  8
1
 62
7
  6
CONTINUOUS
 10
531.928000
 20
386.851000
 11
532.928000
 21
386.851000
  0
LINE
  8
1
 62
7
  6
CONTINUOUS
 10
531.928000
 20
391.051000
 11
532.928000
 21
391.051000
  0
LINE
  8
1
 62
7
  6
CONTINUOUS
 10
533.928000
 20
391.451000
 11
531.928000
 21
391.451000
  0
LINE
  8
1
 62
7
  6
CONTINUOUS
 10
531.928000
 20
386.451000
 11
533.928000
 21
386.451000
  0
LINE
  8
1
 62
7
  6
CONTINUOUS
 10
538.928000
 20
395.951000
 11
534.928000
 21
395.951000
  0
LINE
  8
1
 62
7
  6
CONTINUOUS
 10
534.928000
 20
394.951000
 11
537.928000
 21
394.951000
  0
LINE
  8
1
 62
7
  6
CONTINUOUS
 10
536.928000
 20
393.951000
 11
534.928000
 21
393.951000
  0
LINE
  8
1
 62
7
  6
CONTINUOUS
 10
534.928000
 20
392.951000
 11
535.928000
 21
392.951000
  0
LINE
  8
1
 62
7
  6
CONTINUOUS
 10
535.928000
 20
381.951000
 11
539.928000
 21
381.951000
  0
LINE
  8
1
 62
7
  6
CONTINUOUS
 10
539.928000
 20
382.951000
 11
536.928000
 21
382.951000
  0
LINE
  8
1
 62
7
  6
CONTINUOUS
 10
537.928000
 20
383.951000
 11
539.928000
 21
383.951000
  0
LINE
  8
1
 62
7
  6
CONTINUOUS
 10
539.928000
 20
384.951000
 11
538.928000
 21
384.951000
  0
LINE
  8
1
 62
7
  6
CONTINUOUS
 10
534.928000
 20
396.451000
 11
539.428000
 21
396.451000
  0
LINE
  8
1
 62
7
  6
CONTINUOUS
 10
538.428000
 20
395.451000
 11
534.928000
 21
395.451000
  0
LINE
  8
1
 62
7
  6
CONTINUOUS
 10
534.928000
 20
394.451000
 11
537.428000
 21
394.451000
  0
LINE
  8
1
 62
7
  6
CONTINUOUS
 10
536.428000
 20
393.451000
 11
534.928000
 21
393.451000
  0
LINE
  8
1
 62
7
  6
CONTINUOUS
 10
539.928000
 20
381.451000
 11
535.428000
 21
381.451000
  0
LINE
  8
1
 62
7
  6
CONTINUOUS
 10
536.428000
 20
382.451000
 11
539.928000
 21
382.451000
  0
LINE
  8
1
 62
7
  6
CONTINUOUS
 10
539.928000
 20
383.451000
 11
537.428000
 21
383.451000
  0
LINE
  8
1
 62
7
  6
CONTINUOUS
 10
538.428000
 20
384.451000
 11
539.928000
 21
384.451000
  0
LINE
  8
1
 62
7
  6
CONTINUOUS
 10
531.928000
 20
381.451000
 11
531.928000
 21
398.166729
  0
LINE
  8
1
 62
7
  6
CONTINUOUS
 10
511.928000
 20
398.166729
 11
511.928000
 21
381.451000
  0
LINE
  8
1
 62
7
  6
DASHDOT
 10
521.928000
 20
381.451000
 11
521.928000
 21
377.836102
  0
LINE
  8
1
 62
7
  6
CONTINUOUS
 10
527.328096
 20
381.451000
 11
527.328096
 21
376.951001
  0
LINE
  8
1
 62
7
  6
CONTINUOUS
 10
530.398596
 20
381.451000
 11
530.398596
 21
377.250999
  0
LINE
  8
1
 62
7
  6
CONTINUOUS
 10
527.828096
 20
376.951001
 11
527.828096
 21
381.451000
  0
LINE
  8
1
 62
7
  6
CONTINUOUS
 10
517.928000
 20
366.951000
 11
517.928000
 21
381.451000
  0
LINE
  8
1
 62
7
  6
CONTINUOUS
 10
525.928000
 20
381.451000
 11
525.928000
 21
366.951000
  0
LINE
  8
1
 62
7
  6
CONTINUOUS
 10
517.928000
 20
351.951000
 11
517.928000
 21
356.951000
  0
LINE
  8
1
 62
7
  6
CONTINUOUS
 10
525.928000
 20
356.951000
 11
525.928000
 21
351.951000
  0
LINE
  8
1
 62
7
  6
CONTINUOUS
 10
515.757596
 20
377.951000
 11
517.928000
 21
377.951000
  0
LINE
  8
1
 62
7
  6
CONTINUOUS
 10
525.928000
 20
376.951001
 11
527.328096
 21
376.951001
  0
ARC
  8
1
 62
7
  6
CONTINUOUS
 10
537.398596
 20
389.951000
 40
9.000000
 50
115.583002
 51
127.433769
  0
ARC
  8
1
 62
7
  6
CONTINUOUS
 10
537.398596
 20
389.951000
 40
10.000000
 50
89.741069
 51
99.666409
  0
ARC
  8
1
 62
7
  6
CONTINUOUS
 10
537.398596
 20
389.951000
 40
10.000000
 50
-122.765311
 51
-89.741069
  0
ARC
  8
1
 62
7
  6
CONTINUOUS
 10
537.398596
 20
389.951000
 40
7.500000
 50
-136.837184
 51
-117.564449
  0
ARC
  8
1
 62
7
  6
CONTINUOUS
 10
537.398596
 20
389.951000
 40
7.500000
 50
-61.927576
 51
136.837184
  0
ARC
  8
1
 62
7
  6
CONTINUOUS
 10
537.398596
 20
389.951000
 40
8.500000
 50
-130.060750
 51
-114.098424
  0
ARC
  8
1
 62
7
  6
CONTINUOUS
 10
537.398596
 20
389.951000
 40
8.500000
 50
-65.466573
 51
130.060750
  0
ARC
  8
1
 62
7
  6
CONTINUOUS
 10
537.398596
 20
389.951000
 40
9.000000
 50
-127.433769
 51
-109.318249
  0
ARC
  8
1
 62
7
  6
CONTINUOUS
 10
537.398596
 20
389.951000
 40
9.000000
 50
-70.063944
 51
-64.416998
  0
LINE
  8
1
 62
7
  6
CONTINUOUS
 10
533.512232
 20
381.833354
 11
534.535579
 21
381.343422
  0
LINE
  8
1
 62
7
  6
CONTINUOUS
 10
535.355250
 20
380.951000
 11
593.041636
 21
353.333354
  0
LINE
  8
1
 62
7
  6
CONTINUOUS
 10
157.084000
 20
407.451000
 11
156.084000
 21
408.451000
  0
LINE
  8
1
 62
7
  6
CONTINUOUS
 10
156.084000
 20
398.951000
 11
157.084000
 21
399.951000
  0
LINE
  8
1
 62
7
  6
CONTINUOUS
 10
157.084000
 20
379.951000
 11
156.084000
 21
380.951000
  0
LINE
  8
1
 62
7
  6
CONTINUOUS
 10
157.084000
 20
399.951000
 11
157.084000
 21
379.951000
  0
LINE
  8
1
 62
7
  6
CONTINUOUS
 10
157.084000
 20
407.451000
 11
157.084000
 21
427.951000
  0
LINE
  8
1
 62
7
  6
CONTINUOUS
 10
156.084000
 20
398.951000
 11
152.084000
 21
398.951000
  0
LINE
  8
1
 62
7
  6
CONTINUOUS
 10
152.084000
 20
398.951000
 11
152.084000
 21
352.451000
  0
LINE
  8
1
 62
7
  6
CONTINUOUS
 10
156.084000
 20
352.451000
 11
152.084000
 21
352.451000
  0
LINE
  8
1
 62
7
  6
CONTINUOUS
 10
151.834000
 20
380.951000
 11
147.834000
 21
380.951000
  0
LINE
  8
1
 62
7
  6
CONTINUOUS
 10
151.834000
 20
397.451000
 11
152.084000
 21
397.451000
  0
LINE
  8
1
 62
7
  6
CONTINUOUS
 10
151.834000
 20
382.451000
 11
152.084000
 21
382.451000
  0
LINE
  8
1
 62
7
  6
CONTINUOUS
 10
147.834000
 20
380.951000
 11
147.834000
 21
427.451000
  0
LINE
  8
1
 62
7
  6
CONTINUOUS
 10
151.834000
 20
427.451000
 11
147.834000
 21
427.451000
  0
LINE
  8
1
 62
7
  6
CONTINUOUS
 10
151.834000
 20
380.951000
 11
151.834000
 21
427.451000
  0
LINE
  8
1
 62
7
  6
CONTINUOUS
 10
156.084000
 20
427.451000
 11
152.084000
 21
427.451000
  0
LINE
  8
1
 62
7
  6
CONTINUOUS
 10
151.834000
 20
352.451000
 11
147.834000
 21
352.451000
  0
LINE
  8
1
 62
7
  6
CONTINUOUS
 10
147.834000
 20
398.451000
 11
146.834000
 21
398.451000
  0
LINE
  8
1
 62
7
  6
CONTINUOUS
 10
146.834000
 20
398.451000
 11
146.834000
 21
381.451000
  0
LINE
  8
1
 62
7
  6
CONTINUOUS
 10
146.834000
 20
381.451000
 11
147.834000
 21
381.451000
  0
LINE
  8
1
 62
7
  6
CONTINUOUS
 10
146.834000
 20
398.451000
 11
144.834000
 21
398.451000
  0
LINE
  8
1
 62
7
  6
CONTINUOUS
 10
144.834000
 20
398.451000
 11
143.834000
 21
397.451000
  0
LINE
  8
1
 62
7
  6
CONTINUOUS
 10
144.834000
 20
381.451000
 11
146.834000
 21
381.451000
  0
LINE
  8
1
 62
7
  6
CONTINUOUS
 10
143.834000
 20
397.451000
 11
143.834000
 21
382.451000
  0
LINE
  8
1
 62
7
  6
CONTINUOUS
 10
144.834000
 20
381.451000
 11
143.834000
 21
382.451000
  0
LINE
  8
1
 62
7
  6
CONTINUOUS
 10
144.834000
 20
398.451000
 11
144.834000
 21
381.451000
  0
LINE
  8
1
 62
7
  6
CONTINUOUS
 10
156.084000
 20
398.951000
 11
156.084000
 21
427.951000
  0
LINE
  8
1
 62
7
  6
CONTINUOUS
 10
152.084000
 20
398.951000
 11
152.084000
 21
427.451000
  0
LINE
  8
1
 62
7
  6
CONTINUOUS
 10
147.834000
 20
380.951000
 11
147.834000
 21
352.451000
  0
LINE
  8
1
 62
7
  6
CONTINUOUS
 10
151.834000
 20
352.451000
 11
151.834000
 21
380.951000
  0
LINE
  8
1
 62
7
  6
CONTINUOUS
 10
156.084000
 20
398.951000
 11
156.084000
 21
351.951000
  0
LINE
  8
1
 62
7
  6
CONTINUOUS
 10
157.084000
 20
372.451000
 11
156.084000
 21
371.451000
  0
LINE
  8
1
 62
7
  6
CONTINUOUS
 10
157.084000
 20
372.451000
 11
157.084000
 21
351.951000
  0
LINE
  8
1
 62
7
  6
CONTINUOUS
 10
151.834000
 20
425.951000
 11
152.084000
 21
425.951000
  0
LINE
  8
1
 62
7
  6
CONTINUOUS
 10
151.834000
 20
410.951000
 11
152.084000
 21
410.951000
  0
LINE
  8
1
 62
7
  6
CONTINUOUS
 10
151.834000
 20
368.951000
 11
152.084000
 21
368.951000
  0
LINE
  8
1
 62
7
  6
CONTINUOUS
 10
151.834000
 20
353.951000
 11
152.084000
 21
353.951000
  0
LINE
  8
1
 62
7
  6
CONTINUOUS
 10
147.834000
 20
369.951000
 11
146.834000
 21
369.951000
  0
LINE
  8
1
 62
7
  6
CONTINUOUS
 10
146.834000
 20
369.951000
 11
146.834000
 21
352.951000
  0
LINE
  8
1
 62
7
  6
CONTINUOUS
 10
146.834000
 20
352.951000
 11
147.834000
 21
352.951000
  0
LINE
  8
1
 62
7
  6
CONTINUOUS
 10
146.834000
 20
369.951000
 11
144.834000
 21
369.951000
  0
LINE
  8
1
 62
7
  6
CONTINUOUS
 10
144.834000
 20
369.951000
 11
143.834000
 21
368.951000
  0
LINE
  8
1
 62
7
  6
CONTINUOUS
 10
144.834000
 20
352.951000
 11
146.834000
 21
352.951000
  0
LINE
  8
1
 62
7
  6
CONTINUOUS
 10
143.834000
 20
368.951000
 11
143.834000
 21
353.951000
  0
LINE
  8
1
 62
7
  6
CONTINUOUS
 10
144.834000
 20
352.951000
 11
143.834000
 21
353.951000
  0
LINE
  8
1
 62
7
  6
CONTINUOUS
 10
144.834000
 20
369.951000
 11
144.834000
 21
352.951000
  0
LINE
  8
1
 62
7
  6
CONTINUOUS
 10
147.834000
 20
426.951000
 11
146.834000
 21
426.951000
  0
LINE
  8
1
 62
7
  6
CONTINUOUS
 10
146.834000
 20
426.951000
 11
146.834000
 21
409.951000
  0
LINE
  8
1
 62
7
  6
CONTINUOUS
 10
146.834000
 20
409.951000
 11
147.834000
 21
409.951000
  0
LINE
  8
1
 62
7
  6
CONTINUOUS
 10
146.834000
 20
426.951000
 11
144.834000
 21
426.951000
  0
LINE
  8
1
 62
7
  6
CONTINUOUS
 10
144.834000
 20
426.951000
 11
143.834000
 21
425.951000
  0
LINE
  8
1
 62
7
  6
CONTINUOUS
 10
144.834000
 20
409.951000
 11
146.834000
 21
409.951000
  0
LINE
  8
1
 62
7
  6
CONTINUOUS
 10
143.834000
 20
425.951000
 11
143.834000
 21
410.951000
  0
LINE
  8
1
 62
7
  6
CONTINUOUS
 10
144.834000
 20
409.951000
 11
143.834000
 21
410.951000
  0
LINE
  8
1
 62
7
  6
CONTINUOUS
 10
144.834000
 20
426.951000
 11
144.834000
 21
409.951000
  0
LINE
  8
1
 62
7
  6
CONTINUOUS
 10
275.084000
 20
407.451000
 11
276.084000
 21
408.451000
  0
LINE
  8
1
 62
7
  6
CONTINUOUS
 10
276.084000
 20
398.951000
 11
275.084000
 21
399.951000
  0
LINE
  8
1
 62
7
  6
CONTINUOUS
 10
275.084000
 20
379.951000
 11
276.084000
 21
380.951000
  0
LINE
  8
1
 62
7
  6
CONTINUOUS
 10
275.084000
 20
399.951000
 11
275.084000
 21
379.951000
  0
LINE
  8
1
 62
7
  6
CONTINUOUS
 10
275.084000
 20
407.451000
 11
275.084000
 21
427.951000
  0
LINE
  8
1
 62
7
  6
CONTINUOUS
 10
276.084000
 20
398.951000
 11
280.084000
 21
398.951000
  0
LINE
  8
1
 62
7
  6
CONTINUOUS
 10
280.084000
 20
398.951000
 11
280.084000
 21
352.451000
  0
LINE
  8
1
 62
7
  6
CONTINUOUS
 10
276.084000
 20
352.451000
 11
280.084000
 21
352.451000
  0
LINE
  8
1
 62
7
  6
CONTINUOUS
 10
280.334000
 20
380.951000
 11
284.334000
 21
380.951000
  0
LINE
  8
1
 62
7
  6
CONTINUOUS
 10
280.334000
 20
397.451000
 11
280.084000
 21
397.451000
  0
LINE
  8
1
 62
7
  6
CONTINUOUS
 10
280.334000
 20
382.451000
 11
280.084000
 21
382.451000
  0
LINE
  8
1
 62
7
  6
CONTINUOUS
 10
284.334000
 20
380.951000
 11
284.334000
 21
427.451000
  0
LINE
  8
1
 62
7
  6
CONTINUOUS
 10
280.334000
 20
427.451000
 11
284.334000
 21
427.451000
  0
LINE
  8
1
 62
7
  6
CONTINUOUS
 10
280.334000
 20
380.951000
 11
280.334000
 21
427.451000
  0
LINE
  8
1
 62
7
  6
CONTINUOUS
 10
276.084000
 20
427.451000
 11
280.084000
 21
427.451000
  0
LINE
  8
1
 62
7
  6
CONTINUOUS
 10
280.334000
 20
352.451000
 11
284.334000
 21
352.451000
  0
LINE
  8
1
 62
7
  6
CONTINUOUS
 10
284.334000
 20
398.451000
 11
285.334000
 21
398.451000
  0
LINE
  8
1
 62
7
  6
CONTINUOUS
 10
285.334000
 20
398.451000
 11
285.334000
 21
381.451000
  0
LINE
  8
1
 62
7
  6
CONTINUOUS
 10
285.334000
 20
381.451000
 11
284.334000
 21
381.451000
  0
LINE
  8
1
 62
7
  6
CONTINUOUS
 10
285.334000
 20
398.451000
 11
287.334000
 21
398.451000
  0
LINE
  8
1
 62
7
  6
CONTINUOUS
 10
287.334000
 20
398.451000
 11
288.334000
 21
397.451000
  0
LINE
  8
1
 62
7
  6
CONTINUOUS
 10
287.334000
 20
381.451000
 11
285.334000
 21
381.451000
  0
LINE
  8
1
 62
7
  6
CONTINUOUS
 10
288.334000
 20
397.451000
 11
288.334000
 21
382.451000
  0
LINE
  8
1
 62
7
  6
CONTINUOUS
 10
287.334000
 20
381.451000
 11
288.334000
 21
382.451000
  0
LINE
  8
1
 62
7
  6
CONTINUOUS
 10
287.334000
 20
398.451000
 11
287.334000
 21
381.451000
  0
LINE
  8
1
 62
7
  6
CONTINUOUS
 10
276.084000
 20
398.951000
 11
276.084000
 21
427.951000
  0
LINE
  8
1
 62
7
  6
CONTINUOUS
 10
280.084000
 20
398.951000
 11
280.084000
 21
427.451000
  0
LINE
  8
1
 62
7
  6
CONTINUOUS
 10
284.334000
 20
380.951000
 11
284.334000
 21
352.451000
  0
LINE
  8
1
 62
7
  6
CONTINUOUS
 10
280.334000
 20
352.451000
 11
280.334000
 21
380.951000
  0
LINE
  8
1
 62
7
  6
CONTINUOUS
 10
276.084000
 20
398.951000
 11
276.084000
 21
351.951000
  0
LINE
  8
1
 62
7
  6
CONTINUOUS
 10
275.084000
 20
372.451000
 11
276.084000
 21
371.451000
  0
LINE
  8
1
 62
7
  6
CONTINUOUS
 10
275.084000
 20
372.451000
 11
275.084000
 21
351.951000
  0
LINE
  8
1
 62
7
  6
CONTINUOUS
 10
280.334000
 20
425.951000
 11
280.084000
 21
425.951000
  0
LINE
  8
1
 62
7
  6
CONTINUOUS
 10
280.334000
 20
410.951000
 11
280.084000
 21
410.951000
  0
LINE
  8
1
 62
7
  6
CONTINUOUS
 10
280.334000
 20
368.951000
 11
280.084000
 21
368.951000
  0
LINE
  8
1
 62
7
  6
CONTINUOUS
 10
280.334000
 20
353.951000
 11
280.084000
 21
353.951000
  0
LINE
  8
1
 62
7
  6
CONTINUOUS
 10
284.334000
 20
369.951000
 11
285.334000
 21
369.951000
  0
LINE
  8
1
 62
7
  6
CONTINUOUS
 10
285.334000
 20
369.951000
 11
285.334000
 21
352.951000
  0
LINE
  8
1
 62
7
  6
CONTINUOUS
 10
285.334000
 20
352.951000
 11
284.334000
 21
352.951000
  0
LINE
  8
1
 62
7
  6
CONTINUOUS
 10
285.334000
 20
369.951000
 11
287.334000
 21
369.951000
  0
LINE
  8
1
 62
7
  6
CONTINUOUS
 10
287.334000
 20
369.951000
 11
288.334000
 21
368.951000
  0
LINE
  8
1
 62
7
  6
CONTINUOUS
 10
287.334000
 20
352.951000
 11
285.334000
 21
352.951000
  0
LINE
  8
1
 62
7
  6
CONTINUOUS
 10
288.334000
 20
368.951000
 11
288.334000
 21
353.951000
  0
LINE
  8
1
 62
7
  6
CONTINUOUS
 10
287.334000
 20
352.951000
 11
288.334000
 21
353.951000
  0
LINE
  8
1
 62
7
  6
CONTINUOUS
 10
287.334000
 20
369.951000
 11
287.334000
 21
352.951000
  0
LINE
  8
1
 62
7
  6
CONTINUOUS
 10
284.334000
 20
426.951000
 11
285.334000
 21
426.951000
  0
LINE
  8
1
 62
7
  6
CONTINUOUS
 10
285.334000
 20
426.951000
 11
285.334000
 21
409.951000
  0
LINE
  8
1
 62
7
  6
CONTINUOUS
 10
285.334000
 20
409.951000
 11
284.334000
 21
409.951000
  0
LINE
  8
1
 62
7
  6
CONTINUOUS
 10
285.334000
 20
426.951000
 11
287.334000
 21
426.951000
  0
LINE
  8
1
 62
7
  6
CONTINUOUS
 10
287.334000
 20
426.951000
 11
288.334000
 21
425.951000
  0
LINE
  8
1
 62
7
  6
CONTINUOUS
 10
287.334000
 20
409.951000
 11
285.334000
 21
409.951000
  0
LINE
  8
1
 62
7
  6
CONTINUOUS
 10
288.334000
 20
425.951000
 11
288.334000
 21
410.951000
  0
LINE
  8
1
 62
7
  6
CONTINUOUS
 10
287.334000
 20
409.951000
 11
288.334000
 21
410.951000
  0
LINE
  8
1
 62
7
  6
CONTINUOUS
 10
287.334000
 20
426.951000
 11
287.334000
 21
409.951000
  0
LINE
  8
1
 62
7
  6
CONTINUOUS
 10
157.084000
 20
407.451000
 11
275.084000
 21
407.451000
  0
LINE
  8
1
 62
7
  6
CONTINUOUS
 10
275.084000
 20
399.951000
 11
157.084000
 21
399.951000
  0
LINE
  8
1
 62
7
  6
CONTINUOUS
 10
157.084000
 20
379.951000
 11
275.084000
 21
379.951000
  0
LINE
  8
1
 62
7
  6
CONTINUOUS
 10
157.084000
 20
372.451000
 11
275.084000
 21
372.451000
  0
CIRCLE
  8
1
 62
7
  6
CONTINUOUS
 10
191.084000
 20
389.951000
 40
5.000000
  0
CIRCLE
  8
1
 62
7
  6
CONTINUOUS
 10
191.084000
 20
389.951000
 40
4.500000
  0
LINE
  8
1
 62
7
  6
DASHDOT
 10
191.084000
 20
383.951000
 11
191.084000
 21
395.951000
  0
CIRCLE
  8
1
 62
7
  6
CONTINUOUS
 10
241.084000
 20
389.951000
 40
5.000000
  0
CIRCLE
  8
1
 62
7
  6
CONTINUOUS
 10
241.084000
 20
389.951000
 40
4.500000
  0
LINE
  8
1
 62
7
  6
DASHDOT
 10
241.084000
 20
383.951000
 11
241.084000
 21
395.951000
  0
LINE
  8
1
 62
7
  6
CONTINUOUS
 10
222.084000
 20
366.996268
 11
210.084000
 21
366.996268
  0
LINE
  8
1
 62
7
  6
CONTINUOUS
 10
222.084000
 20
355.905732
 11
222.084000
 21
366.996268
  0
LINE
  8
1
 62
7
  6
CONTINUOUS
 10
222.084000
 20
355.905732
 11
210.084000
 21
355.905732
  0
LINE
  8
1
 62
7
  6
CONTINUOUS
 10
210.084000
 20
366.996268
 11
210.084000
 21
355.905732
  0
LINE
  8
1
 62
7
  6
DASHDOT
 10
291.334000
 20
361.451000
 11
140.834000
 21
361.451000
  0
LINE
  8
1
 62
7
  6
DASHDOT
 10
293.334000
 20
389.951000
 11
138.834000
 21
389.951000
  0
LINE
  8
1
 62
7
  6
DASHDOT
 10
291.334000
 20
418.451000
 11
140.834000
 21
418.451000
  0
CIRCLE
  8
1
 62
7
  6
CONTINUOUS
 10
272.584000
 20
361.451000
 40
2.000000
  0
CIRCLE
  8
1
 62
7
  6
CONTINUOUS
 10
272.584000
 20
361.451000
 40
1.650000
  0
LINE
  8
1
 62
7
  6
DASHDOT
 10
272.584000
 20
364.451000
 11
272.584000
 21
358.451000
  0
CIRCLE
  8
1
 62
7
  6
CONTINUOUS
 10
272.584000
 20
361.451000
 40
1.500000
  0
LINE
  8
1
 62
7
  6
CONTINUOUS
 10
273.184000
 20
360.451000
 11
273.784000
 21
361.451000
  0
LINE
  8
1
 62
7
  6
CONTINUOUS
 10
273.784000
 20
361.451000
 11
273.184000
 21
362.451000
  0
LINE
  8
1
 62
7
  6
CONTINUOUS
 10
273.184000
 20
362.451000
 11
271.984000
 21
362.451000
  0
LINE
  8
1
 62
7
  6
CONTINUOUS
 10
271.984000
 20
362.451000
 11
271.384000
 21
361.451000
  0
LINE
  8
1
 62
7
  6
CONTINUOUS
 10
271.384000
 20
361.451000
 11
271.984000
 21
360.451000
  0
LINE
  8
1
 62
7
  6
CONTINUOUS
 10
271.984000
 20
360.451000
 11
273.184000
 21
360.451000
  0
CIRCLE
  8
1
 62
7
  6
CONTINUOUS
 10
159.584000
 20
361.451000
 40
2.000000
  0
CIRCLE
  8
1
 62
7
  6
CONTINUOUS
 10
159.584000
 20
361.451000
 40
1.650000
  0
LINE
  8
1
 62
7
  6
DASHDOT
 10
159.584000
 20
364.451000
 11
159.584000
 21
358.451000
  0
CIRCLE
  8
1
 62
7
  6
CONTINUOUS
 10
159.584000
 20
361.451000
 40
1.500000
  0
LINE
  8
1
 62
7
  6
CONTINUOUS
 10
158.984000
 20
360.451000
 11
158.384000
 21
361.451000
  0
LINE
  8
1
 62
7
  6
CONTINUOUS
 10
158.384000
 20
361.451000
 11
158.984000
 21
362.451000
  0
LINE
  8
1
 62
7
  6
CONTINUOUS
 10
158.984000
 20
362.451000
 11
160.184000
 21
362.451000
  0
LINE
  8
1
 62
7
  6
CONTINUOUS
 10
160.184000
 20
362.451000
 11
160.784000
 21
361.451000
  0
LINE
  8
1
 62
7
  6
CONTINUOUS
 10
160.784000
 20
361.451000
 11
160.184000
 21
360.451000
  0
LINE
  8
1
 62
7
  6
CONTINUOUS
 10
160.184000
 20
360.451000
 11
158.984000
 21
360.451000
  0
CIRCLE
  8
1
 62
7
  6
CONTINUOUS
 10
159.584000
 20
418.451000
 40
2.000000
  0
CIRCLE
  8
1
 62
7
  6
CONTINUOUS
 10
159.584000
 20
418.451000
 40
1.650000
  0
LINE
  8
1
 62
7
  6
DASHDOT
 10
159.584000
 20
415.451000
 11
159.584000
 21
421.451000
  0
CIRCLE
  8
1
 62
7
  6
CONTINUOUS
 10
159.584000
 20
418.451000
 40
1.500000
  0
LINE
  8
1
 62
7
  6
CONTINUOUS
 10
158.984000
 20
419.451000
 11
158.384000
 21
418.451000
  0
LINE
  8
1
 62
7
  6
CONTINUOUS
 10
158.384000
 20
418.451000
 11
158.984000
 21
417.451000
  0
LINE
  8
1
 62
7
  6
CONTINUOUS
 10
158.984000
 20
417.451000
 11
160.184000
 21
417.451000
  0
LINE
  8
1
 62
7
  6
CONTINUOUS
 10
160.184000
 20
417.451000
 11
160.784000
 21
418.451000
  0
LINE
  8
1
 62
7
  6
CONTINUOUS
 10
160.784000
 20
418.451000
 11
160.184000
 21
419.451000
  0
LINE
  8
1
 62
7
  6
CONTINUOUS
 10
160.184000
 20
419.451000
 11
158.984000
 21
419.451000
  0
CIRCLE
  8
1
 62
7
  6
CONTINUOUS
 10
272.584000
 20
418.451000
 40
2.000000
  0
CIRCLE
  8
1
 62
7
  6
CONTINUOUS
 10
272.584000
 20
418.451000
 40
1.650000
  0
LINE
  8
1
 62
7
  6
DASHDOT
 10
272.584000
 20
415.451000
 11
272.584000
 21
421.451000
  0
CIRCLE
  8
1
 62
7
  6
CONTINUOUS
 10
272.584000
 20
418.451000
 40
1.500000
  0
LINE
  8
1
 62
7
  6
CONTINUOUS
 10
273.184000
 20
419.451000
 11
273.784000
 21
418.451000
  0
LINE
  8
1
 62
7
  6
CONTINUOUS
 10
273.784000
 20
418.451000
 11
273.184000
 21
417.451000
  0
LINE
  8
1
 62
7
  6
CONTINUOUS
 10
273.184000
 20
417.451000
 11
271.984000
 21
417.451000
  0
LINE
  8
1
 62
7
  6
CONTINUOUS
 10
271.984000
 20
417.451000
 11
271.384000
 21
418.451000
  0
LINE
  8
1
 62
7
  6
CONTINUOUS
 10
271.384000
 20
418.451000
 11
271.984000
 21
419.451000
  0
LINE
  8
1
 62
7
  6
CONTINUOUS
 10
271.984000
 20
419.451000
 11
273.184000
 21
419.451000
  0
ARC
  8
1
 62
7
  6
CONTINUOUS
 10
216.084000
 20
389.951000
 40
14.500000
 50
43.602819
 51
136.397181
  0
ARC
  8
1
 62
7
  6
CONTINUOUS
 10
216.084000
 20
389.951000
 40
14.500000
 50
-136.397181
 51
-43.602819
  0
ARC
  8
1
 62
7
  6
CONTINUOUS
 10
216.084000
 20
389.951000
 40
14.200000
 50
44.766995
 51
135.233005
  0
ARC
  8
1
 62
7
  6
CONTINUOUS
 10
216.084000
 20
389.951000
 40
14.200000
 50
-135.233005
 51
-44.766995
  0
ARC
  8
1
 62
7
  6
CONTINUOUS
 10
216.084000
 20
389.951000
 40
30.000000
 50
-160.528779
 51
-144.314665
  0
ARC
  8
1
 62
7
  6
CONTINUOUS
 10
216.084000
 20
389.951000
 40
30.000000
 50
144.314665
 51
160.528779
  0
ARC
  8
1
 62
7
  6
CONTINUOUS
 10
216.084000
 20
389.951000
 40
30.000000
 50
19.471221
 51
35.685335
  0
ARC
  8
1
 62
7
  6
CONTINUOUS
 10
216.084000
 20
389.951000
 40
30.000000
 50
-35.685335
 51
-19.471221
  0
ARC
  8
1
 62
7
  6
CONTINUOUS
 10
216.084000
 20
389.951000
 40
29.000000
 50
142.882737
 51
159.828729
  0
ARC
  8
1
 62
7
  6
CONTINUOUS
 10
216.084000
 20
389.951000
 40
29.000000
 50
20.171271
 51
37.117263
  0
ARC
  8
1
 62
7
  6
CONTINUOUS
 10
216.084000
 20
389.951000
 40
29.000000
 50
-37.117263
 51
-20.171271
  0
ARC
  8
1
 62
7
  6
CONTINUOUS
 10
216.084000
 20
389.951000
 40
29.000000
 50
-159.828729
 51
-142.882737
  0
LINE
  8
1
 62
7
  6
CONTINUOUS
 10
199.584000
 20
402.436281
 11
200.084000
 21
401.936281
  0
LINE
  8
1
 62
7
  6
CONTINUOUS
 10
200.584000
 20
401.436281
 11
201.084000
 21
401.936281
  0
LINE
  8
1
 62
7
  6
CONTINUOUS
 10
200.584000
 20
399.951000
 11
200.584000
 21
401.436281
  0
LINE
  8
1
 62
7
  6
CONTINUOUS
 10
199.584000
 20
402.436281
 11
199.584000
 21
407.451000
  0
LINE
  8
1
 62
7
  6
CONTINUOUS
 10
208.710551
 20
402.436281
 11
199.584000
 21
402.436281
  0
LINE
  8
1
 62
7
  6
CONTINUOUS
 10
207.922932
 20
401.936281
 11
200.084000
 21
401.936281
  0
LINE
  8
1
 62
7
  6
CONTINUOUS
 10
200.584000
 20
401.436281
 11
207.233107
 21
401.436281
  0
LINE
  8
1
 62
7
  6
DASHDOT
 10
206.584000
 20
409.451000
 11
206.584000
 21
397.951000
  0
LINE
  8
1
 62
7
  6
CONTINUOUS
 10
213.584000
 20
404.233857
 11
213.584000
 21
407.451000
  0
LINE
  8
1
 62
7
  6
CONTINUOUS
 10
200.584000
 20
378.465719
 11
201.084000
 21
377.965719
  0
LINE
  8
1
 62
7
  6
CONTINUOUS
 10
200.584000
 20
379.951000
 11
200.584000
 21
378.465719
  0
LINE
  8
1
 62
7
  6
CONTINUOUS
 10
200.584000
 20
378.465719
 11
207.233107
 21
378.465719
  0
LINE
  8
1
 62
7
  6
CONTINUOUS
 10
201.084000
 20
377.965719
 11
207.922932
 21
377.965719
  0
LINE
  8
1
 62
7
  6
DASHDOT
 10
206.584000
 20
381.951000
 11
206.584000
 21
375.965719
  0
LINE
  8
1
 62
7
  6
DASHDOT
 10
216.084000
 20
440.951000
 11
216.084000
 21
338.951000
  0
LINE
  8
1
 62
7
  6
CONTINUOUS
 10
315.584000
 20
427.951000
 11
316.084000
 21
428.451000
  0
LINE
  8
1
 62
7
  6
CONTINUOUS
 10
315.584000
 20
351.951000
 11
316.084000
 21
351.451000
  0
LINE
  8
1
 62
7
  6
CONTINUOUS
 10
316.084000
 20
344.451000
 11
315.584000
 21
343.951000
  0
LINE
  8
1
 62
7
  6
CONTINUOUS
 10
316.084000
 20
344.451000
 11
316.084000
 21
351.451000
  0
LINE
  8
1
 62
7
  6
CONTINUOUS
 10
316.084000
 20
435.451000
 11
315.584000
 21
435.951000
  0
LINE
  8
1
 62
7
  6
CONTINUOUS
 10
316.084000
 20
428.451000
 11
316.084000
 21
435.451000
  0
ARC
  8
1
 62
7
  6
CONTINUOUS
 10
328.084000
 20
368.451000
 40
1.500000
 50
-147.769047
 51
-90.000000
  0
ARC
  8
1
 62
7
  6
CONTINUOUS
 10
328.084000
 20
368.451000
 40
1.500000
 50
-90.000000
 51
-32.230953
  0
ARC
  8
1
 62
7
  6
CONTINUOUS
 10
331.784000
 20
377.351000
 40
0.500000
 50
90.000000
 51
-101.536959
  0
ARC
  8
1
 62
7
  6
CONTINUOUS
 10
324.384000
 20
377.351000
 40
0.500000
 50
-78.463041
 51
90.000000
  0
LINE
  8
1
 62
7
  6
CONTINUOUS
 10
329.756926
 20
367.651000
 11
326.482119
 21
367.651000
  0
LINE
  8
1
 62
7
  6
CONTINUOUS
 10
326.190699
 20
368.129806
 11
326.482119
 21
367.651000
  0
LINE
  8
1
 62
7
  6
CONTINUOUS
 10
329.977301
 20
368.129806
 11
329.756926
 21
367.651000
  0
LINE
  8
1
 62
7
  6
CONTINUOUS
 10
330.584000
 20
371.251000
 11
329.977301
 21
368.129806
  0
LINE
  8
1
 62
7
  6
CONTINUOUS
 10
325.584000
 20
371.251000
 11
326.190699
 21
368.129806
  0
LINE
  8
1
 62
7
  6
CONTINUOUS
 10
330.584000
 20
374.051000
 11
325.584000
 21
374.051000
  0
LINE
  8
1
 62
7
  6
CONTINUOUS
 10
330.584000
 20
374.051000
 11
330.384000
 21
374.251000
  0
LINE
  8
1
 62
7
  6
CONTINUOUS
 10
325.584000
 20
374.051000
 11
325.784000
 21
374.251000
  0
LINE
  8
1
 62
7
  6
CONTINUOUS
 10
330.584000
 20
371.251000
 11
330.584000
 21
374.051000
  0
LINE
  8
1
 62
7
  6
CONTINUOUS
 10
325.584000
 20
371.251000
 11
330.584000
 21
371.251000
  0
LINE
  8
1
 62
7
  6
CONTINUOUS
 10
325.584000
 20
374.051000
 11
325.584000
 21
371.251000
  0
LINE
  8
1
 62
7
  6
CONTINUOUS
 10
330.384000
 20
374.251000
 11
325.784000
 21
374.251000
  0
LINE
  8
1
 62
7
  6
CONTINUOUS
 10
325.884000
 20
374.251000
 11
330.284000
 21
374.251000
  0
LINE
  8
1
 62
7
  6
CONTINUOUS
 10
330.484000
 20
374.451000
 11
330.484000
 21
374.851000
  0
LINE
  8
1
 62
7
  6
CONTINUOUS
 10
325.684000
 20
374.851000
 11
325.684000
 21
374.451000
  0
LINE
  8
1
 62
7
  6
CONTINUOUS
 10
331.684000
 20
376.861102
 11
331.684000
 21
375.051000
  0
LINE
  8
1
 62
7
  6
CONTINUOUS
 10
331.484000
 20
374.851000
 11
324.684000
 21
374.851000
  0
LINE
  8
1
 62
7
  6
CONTINUOUS
 10
331.984000
 20
377.851000
 11
324.184000
 21
377.851000
  0
LINE
  8
1
 62
7
  6
CONTINUOUS
 10
324.484000
 20
375.051000
 11
324.484000
 21
376.861102
  0
LINE
  8
1
 62
7
  6
CONTINUOUS
 10
324.484000
 20
376.861102
 11
331.684000
 21
376.861102
  0
LINE
  8
1
 62
7
  6
CONTINUOUS
 10
325.684000
 20
374.451000
 11
325.884000
 21
374.251000
  0
LINE
  8
1
 62
7
  6
CONTINUOUS
 10
330.484000
 20
374.451000
 11
330.284000
 21
374.251000
  0
LINE
  8
1
 62
7
  6
CONTINUOUS
 10
331.484000
 20
374.851000
 11
331.684000
 21
375.051000
  0
LINE
  8
1
 62
7
  6
CONTINUOUS
 10
324.484000
 20
375.051000
 11
324.684000
 21
374.851000
  0
LINE
  8
1
 62
7
  6
CONTINUOUS
 10
324.484000
 20
375.051000
 11
331.684000
 21
375.051000
  0
LINE
  8
1
 62
7
  6
CONTINUOUS
 10
330.484000
 20
374.451000
 11
325.684000
 21
374.451000
  0
LINE
  8
1
 62
7
  6
CONTINUOUS
 10
324.184000
 20
381.451000
 11
324.184000
 21
377.851000
  0
LINE
  8
1
 62
7
  6
CONTINUOUS
 10
331.984000
 20
377.851000
 11
331.984000
 21
381.451000
  0
ARC
  8
1
 62
7
  6
CONTINUOUS
 10
351.978272
 20
453.093431
 40
3.000000
 50
3.847977
 51
87.000000
  0
ARC
  8
1
 62
7
  6
CONTINUOUS
 10
344.734000
 20
456.201000
 40
0.500000
 50
0.000000
 51
90.000000
  0
ARC
  8
1
 62
7
  6
CONTINUOUS
 10
355.184000
 20
454.651000
 40
0.500000
 50
0.000000
 51
90.000000
  0
ARC
  8
1
 62
7
  6
CONTINUOUS
 10
351.978272
 20
399.808569
 40
3.000000
 50
-87.000000
 51
-3.847977
  0
ARC
  8
1
 62
7
  6
CONTINUOUS
 10
331.784000
 20
377.351000
 40
0.500000
 50
90.000000
 51
-101.536959
  0
ARC
  8
1
 62
7
  6
CONTINUOUS
 10
324.384000
 20
377.351000
 40
0.500000
 50
-78.463041
 51
90.000000
  0
ARC
  8
1
 62
7
  6
CONTINUOUS
 10
-44.126741
 20
426.451000
 40
400.000000
 50
-3.847977
 51
1.762598
  0
ARC
  8
1
 62
7
  6
CONTINUOUS
 10
-44.126741
 20
426.451000
 40
400.000000
 50
1.762598
 51
3.847977
  0
ARC
  8
1
 62
7
  6
CONTINUOUS
 10
322.284000
 20
450.551000
 40
1.000000
 50
90.000000
 51
180.000000
  0
ARC
  8
1
 62
7
  6
CONTINUOUS
 10
322.284000
 20
402.351000
 40
1.000000
 50
180.000000
 51
-90.000000
  0
LINE
  8
1
 62
7
  6
CONTINUOUS
 10
322.284000
 20
451.551000
 11
322.784000
 21
451.551000
  0
LINE
  8
1
 62
7
  6
CONTINUOUS
 10
322.784000
 20
401.351000
 11
322.284000
 21
401.351000
  0
LINE
  8
1
 62
7
  6
CONTINUOUS
 10
321.284000
 20
450.551000
 11
321.284000
 21
402.351000
  0
LINE
  8
1
 62
7
  6
CONTINUOUS
 10
331.684000
 20
376.861102
 11
324.484000
 21
376.861102
  0
LINE
  8
1
 62
7
  6
CONTINUOUS
 10
324.184000
 20
377.851000
 11
331.984000
 21
377.851000
  0
LINE
  8
1
 62
7
  6
CONTINUOUS
 10
324.484000
 20
374.851000
 11
331.684000
 21
374.851000
  0
LINE
  8
1
 62
7
  6
CONTINUOUS
 10
331.684000
 20
374.851000
 11
331.684000
 21
376.861102
  0
LINE
  8
1
 62
7
  6
CONTINUOUS
 10
324.484000
 20
376.861102
 11
324.484000
 21
374.851000
  0
LINE
  8
1
 62
7
  6
CONTINUOUS
 10
332.384000
 20
455.551000
 11
332.584000
 21
455.351000
  0
LINE
  8
1
 62
7
  6
CONTINUOUS
 10
332.584000
 20
453.451000
 11
332.584000
 21
455.351000
  0
LINE
  8
1
 62
7
  6
CONTINUOUS
 10
323.584000
 20
455.351000
 11
332.584000
 21
455.351000
  0
LINE
  8
1
 62
7
  6
CONTINUOUS
 10
323.584000
 20
455.351000
 11
323.784000
 21
455.551000
  0
LINE
  8
1
 62
7
  6
CONTINUOUS
 10
323.584000
 20
455.351000
 11
323.584000
 21
453.451000
  0
LINE
  8
1
 62
7
  6
CONTINUOUS
 10
322.833539
 20
455.551000
 11
333.333528
 21
455.551000
  0
LINE
  8
1
 62
7
  6
CONTINUOUS
 10
324.185366
 20
476.051000
 11
331.983722
 21
476.051000
  0
LINE
  8
1
 62
7
  6
CONTINUOUS
 10
332.483722
 20
475.551000
 11
323.685366
 21
475.551000
  0
LINE
  8
1
 62
7
  6
CONTINUOUS
 10
323.685366
 20
475.551000
 11
323.484685
 21
464.051000
  0
LINE
  8
1
 62
7
  6
CONTINUOUS
 10
332.483722
 20
475.551000
 11
332.586302
 21
464.051000
  0
LINE
  8
1
 62
7
  6
CONTINUOUS
 10
323.685366
 20
475.551000
 11
324.185366
 21
476.051000
  0
LINE
  8
1
 62
7
  6
CONTINUOUS
 10
332.483722
 20
475.551000
 11
331.983722
 21
476.051000
  0
LINE
  8
1
 62
7
  6
CONTINUOUS
 10
322.834685
 20
464.051000
 11
322.833539
 21
455.551000
  0
LINE
  8
1
 62
7
  6
CONTINUOUS
 10
322.834685
 20
464.051000
 11
333.334685
 21
464.051000
  0
LINE
  8
1
 62
7
  6
CONTINUOUS
 10
333.334685
 20
464.051000
 11
333.333528
 21
455.551000
  0
LINE
  8
1
 62
7
  6
CONTINUOUS
 10
340.534000
 20
396.451000
 11
340.534000
 21
456.701000
  0
LINE
  8
1
 62
7
  6
CONTINUOUS
 10
345.234000
 20
420.749891
 11
340.534000
 21
420.749891
  0
LINE
  8
1
 62
7
  6
CONTINUOUS
 10
345.234000
 20
421.734665
 11
340.534000
 21
421.734665
  0
LINE
  8
1
 62
7
  6
CONTINUOUS
 10
345.234000
 20
423.338611
 11
340.534000
 21
423.338611
  0
LINE
  8
1
 62
7
  6
CONTINUOUS
 10
345.234000
 20
424.334771
 11
340.534000
 21
424.334771
  0
LINE
  8
1
 62
7
  6
CONTINUOUS
 10
345.234000
 20
432.152109
 11
340.534000
 21
432.152109
  0
LINE
  8
1
 62
7
  6
CONTINUOUS
 10
345.234000
 20
431.167335
 11
340.534000
 21
431.167335
  0
LINE
  8
1
 62
7
  6
CONTINUOUS
 10
345.234000
 20
429.563389
 11
340.534000
 21
429.563389
  0
LINE
  8
1
 62
7
  6
CONTINUOUS
 10
345.234000
 20
428.344569
 11
340.534000
 21
428.344569
  0
LINE
  8
1
 62
7
  6
CONTINUOUS
 10
345.234000
 20
425.951017
 11
340.534000
 21
425.951017
  0
LINE
  8
1
 62
7
  6
CONTINUOUS
 10
345.234000
 20
396.451000
 11
345.234000
 21
456.451000
  0
LINE
  8
1
 62
7
  6
CONTINUOUS
 10
345.234000
 20
426.950983
 11
340.534000
 21
426.950983
  0
LINE
  8
1
 62
7
  6
CONTINUOUS
 10
340.534000
 20
452.864775
 11
345.234000
 21
452.864775
  0
LINE
  8
1
 62
7
  6
CONTINUOUS
 10
340.534000
 20
454.093388
 11
345.234000
 21
454.093388
  0
LINE
  8
1
 62
7
  6
CONTINUOUS
 10
340.534000
 20
455.111625
 11
345.234000
 21
455.111625
  0
LINE
  8
1
 62
7
  6
CONTINUOUS
 10
340.534000
 20
455.911738
 11
345.234000
 21
455.911738
  0
LINE
  8
1
 62
7
  6
CONTINUOUS
 10
344.734000
 20
456.701000
 11
340.534000
 21
456.701000
  0
LINE
  8
1
 62
7
  6
CONTINUOUS
 10
354.246174
 20
455.151000
 11
355.184000
 21
455.151000
  0
LINE
  8
1
 62
7
  6
CONTINUOUS
 10
355.684000
 20
438.754313
 11
355.684000
 21
454.651000
  0
LINE
  8
1
 62
7
  6
CONTINUOUS
 10
339.734000
 20
397.251000
 11
339.734000
 21
455.651000
  0
LINE
  8
1
 62
7
  6
CONTINUOUS
 10
340.534000
 20
396.451000
 11
345.234000
 21
396.451000
  0
LINE
  8
1
 62
7
  6
CONTINUOUS
 10
340.534000
 20
396.451000
 11
339.734000
 21
397.251000
  0
LINE
  8
1
 62
7
  6
CONTINUOUS
 10
345.234000
 20
456.451000
 11
352.135279
 21
456.089319
  0
LINE
  8
1
 62
7
  6
CONTINUOUS
 10
352.135279
 20
396.812681
 11
345.234000
 21
396.451000
  0
LINE
  8
1
 62
7
  6
CONTINUOUS
 10
339.734000
 20
455.651000
 11
340.534000
 21
456.451000
  0
LINE
  8
1
 62
7
  6
CONTINUOUS
 10
339.734000
 20
453.972260
 11
339.434000
 21
453.982743
  0
LINE
  8
1
 62
7
  6
CONTINUOUS
 10
340.534000
 20
396.317062
 11
345.054299
 21
396.317062
  0
LINE
  8
1
 62
7
  6
CONTINUOUS
 10
340.534000
 20
396.201000
 11
344.734000
 21
396.201000
  0
LINE
  8
1
 62
7
  6
CONTINUOUS
 10
323.784000
 20
448.451000
 11
336.784000
 21
448.451000
  0
LINE
  8
1
 62
7
  6
CONTINUOUS
 10
336.784000
 20
448.451000
 11
336.784000
 21
404.451000
  0
LINE
  8
1
 62
7
  6
CONTINUOUS
 10
336.784000
 20
404.451000
 11
323.784000
 21
404.451000
  0
LINE
  8
1
 62
7
  6
CONTINUOUS
 10
323.784000
 20
404.451000
 11
323.784000
 21
448.451000
  0
LINE
  8
1
 62
7
  6
CONTINUOUS
 10
352.234000
 20
448.755905
 11
346.234000
 21
449.065178
  0
LINE
  8
1
 62
7
  6
CONTINUOUS
 10
346.234000
 20
449.065178
 11
346.234000
 21
455.403044
  0
LINE
  8
1
 62
7
  6
CONTINUOUS
 10
346.234000
 20
455.403044
 11
352.234000
 21
455.093771
  0
LINE
  8
1
 62
7
  6
CONTINUOUS
 10
352.234000
 20
455.093771
 11
352.234000
 21
448.755905
  0
LINE
  8
1
 62
7
  6
CONTINUOUS
 10
322.784000
 20
453.451000
 11
339.734000
 21
453.451000
  0
LINE
  8
1
 62
7
  6
CONTINUOUS
 10
339.734000
 20
399.451000
 11
322.784000
 21
399.451000
  0
LINE
  8
1
 62
7
  6
CONTINUOUS
 10
322.784000
 20
399.451000
 11
322.784000
 21
453.451000
  0
LINE
  8
1
 62
7
  6
CONTINUOUS
 10
302.084000
 20
427.951000
 11
302.084000
 21
399.451000
  0
LINE
  8
1
 62
7
  6
CONTINUOUS
 10
310.084000
 20
399.451000
 11
310.084000
 21
427.951000
  0
LINE
  8
1
 62
7
  6
DASHDOT
 10
306.084000
 20
429.678000
 11
306.084000
 21
349.010000
  0
LINE
  8
1
 62
7
  6
CONTINUOUS
 10
299.084000
 20
399.451000
 11
299.084000
 21
381.451000
  0
LINE
  8
1
 62
7
  6
CONTINUOUS
 10
299.084000
 20
381.451000
 11
335.084000
 21
381.451000
  0
LINE
  8
1
 62
7
  6
CONTINUOUS
 10
335.084000
 20
399.451000
 11
299.084000
 21
399.451000
  0
LINE
  8
1
 62
7
  6
CONTINUOUS
 10
335.084000
 20
381.451000
 11
335.084000
 21
399.451000
  0
ARC
  8
1
 62
7
  6
CONTINUOUS
 10
306.084000
 20
388.951000
 40
8.000000
 50
151.044976
 51
-151.044976
  0
ARC
  8
1
 62
7
  6
CONTINUOUS
 10
328.084000
 20
391.951000
 40
8.000000
 50
-28.955024
 51
28.955024
  0
ARC
  8
1
 62
7
  6
CONTINUOUS
 10
328.084000
 20
391.951000
 40
8.000000
 50
69.635865
 51
110.364135
  0
LINE
  8
1
 62
7
  6
CONTINUOUS
 10
319.084000
 20
366.951000
 11
319.084000
 21
356.951000
  0
LINE
  8
1
 62
7
  6
CONTINUOUS
 10
333.084000
 20
356.951000
 11
333.084000
 21
366.951000
  0
LINE
  8
1
 62
7
  6
CONTINUOUS
 10
335.084000
 20
356.951000
 11
335.084000
 21
366.951000
  0
CIRCLE
  8
1
 62
7
  6
CONTINUOUS
 10
306.084000
 20
361.951000
 40
8.000000
  0
CIRCLE
  8
1
 62
7
  6
CONTINUOUS
 10
306.084000
 20
361.951000
 40
7.000000
  0
LINE
  8
1
 62
7
  6
CONTINUOUS
 10
335.084000
 20
366.951000
 11
312.328998
 21
366.951000
  0
LINE
  8
1
 62
7
  6
CONTINUOUS
 10
299.839002
 20
366.951000
 11
299.084000
 21
366.951000
  0
LINE
  8
1
 62
7
  6
CONTINUOUS
 10
299.084000
 20
356.951000
 11
299.839002
 21
356.951000
  0
LINE
  8
1
 62
7
  6
CONTINUOUS
 10
312.328998
 20
356.951000
 11
335.084000
 21
356.951000
  0
LINE
  8
1
 62
7
  6
CONTINUOUS
 10
299.084000
 20
366.951000
 11
299.084000
 21
365.823983
  0
LINE
  8
1
 62
7
  6
CONTINUOUS
 10
299.084000
 20
358.078017
 11
299.084000
 21
356.951000
  0
LINE
  8
1
 62
7
  6
CONTINUOUS
 10
302.084000
 20
381.451000
 11
302.084000
 21
368.879203
  0
LINE
  8
1
 62
7
  6
CONTINUOUS
 10
310.084000
 20
368.879203
 11
310.084000
 21
381.451000
  0
LINE
  8
1
 62
7
  6
CONTINUOUS
 10
302.084000
 20
355.022797
 11
302.084000
 21
351.951000
  0
LINE
  8
1
 62
7
  6
CONTINUOUS
 10
310.084000
 20
351.951000
 11
310.084000
 21
355.022797
  0
LINE
  8
1
 62
7
  6
CONTINUOUS
 10
302.084000
 20
422.951000
 11
310.084000
 21
422.951000
  0
LINE
  8
1
 62
7
  6
CONTINUOUS
 10
116.584000
 20
427.951000
 11
116.084000
 21
428.451000
  0
LINE
  8
1
 62
7
  6
CONTINUOUS
 10
116.584000
 20
351.951000
 11
116.084000
 21
351.451000
  0
LINE
  8
1
 62
7
  6
CONTINUOUS
 10
116.084000
 20
344.451000
 11
116.584000
 21
343.951000
  0
LINE
  8
1
 62
7
  6
CONTINUOUS
 10
116.084000
 20
351.451000
 11
116.084000
 21
344.451000
  0
LINE
  8
1
 62
7
  6
CONTINUOUS
 10
116.084000
 20
435.451000
 11
116.584000
 21
435.951000
  0
LINE
  8
1
 62
7
  6
CONTINUOUS
 10
116.084000
 20
435.451000
 11
116.084000
 21
428.451000
  0
LINE
  8
1
 62
7
  6
CONTINUOUS
 10
116.584000
 20
427.951000
 11
315.584000
 21
427.951000
  0
LINE
  8
1
 62
7
  6
CONTINUOUS
 10
315.584000
 20
351.951000
 11
116.584000
 21
351.951000
  0
LINE
  8
1
 62
7
  6
CONTINUOUS
 10
116.584000
 20
343.951000
 11
315.584000
 21
343.951000
  0
LINE
  8
1
 62
7
  6
CONTINUOUS
 10
315.584000
 20
435.951000
 11
116.584000
 21
435.951000
  0
LINE
  8
1
 62
7
  6
CONTINUOUS
 10
989.042000
 20
407.451000
 11
990.042000
 21
408.451000
  0
LINE
  8
1
 62
7
  6
CONTINUOUS
 10
990.042000
 20
398.951000
 11
989.042000
 21
399.951000
  0
LINE
  8
1
 62
7
  6
CONTINUOUS
 10
989.042000
 20
379.951000
 11
990.042000
 21
380.951000
  0
LINE
  8
1
 62
7
  6
CONTINUOUS
 10
989.042000
 20
399.951000
 11
989.042000
 21
379.951000
  0
LINE
  8
1
 62
7
  6
CONTINUOUS
 10
989.042000
 20
407.451000
 11
989.042000
 21
427.951000
  0
LINE
  8
1
 62
7
  6
CONTINUOUS
 10
990.042000
 20
398.951000
 11
994.042000
 21
398.951000
  0
LINE
  8
1
 62
7
  6
CONTINUOUS
 10
994.042000
 20
398.951000
 11
994.042000
 21
352.451000
  0
LINE
  8
1
 62
7
  6
CONTINUOUS
 10
990.042000
 20
352.451000
 11
994.042000
 21
352.451000
  0
LINE
  8
1
 62
7
  6
CONTINUOUS
 10
994.292000
 20
380.951000
 11
998.292000
 21
380.951000
  0
LINE
  8
1
 62
7
  6
CONTINUOUS
 10
994.292000
 20
397.451000
 11
994.042000
 21
397.451000
  0
LINE
  8
1
 62
7
  6
CONTINUOUS
 10
994.292000
 20
382.451000
 11
994.042000
 21
382.451000
  0
LINE
  8
1
 62
7
  6
CONTINUOUS
 10
998.292000
 20
380.951000
 11
998.292000
 21
427.451000
  0
LINE
  8
1
 62
7
  6
CONTINUOUS
 10
994.292000
 20
427.451000
 11
998.292000
 21
427.451000
  0
LINE
  8
1
 62
7
  6
CONTINUOUS
 10
994.292000
 20
380.951000
 11
994.292000
 21
427.451000
  0
LINE
  8
1
 62
7
  6
CONTINUOUS
 10
990.042000
 20
427.451000
 11
994.042000
 21
427.451000
  0
LINE
  8
1
 62
7
  6
CONTINUOUS
 10
994.292000
 20
352.451000
 11
998.292000
 21
352.451000
  0
LINE
  8
1
 62
7
  6
CONTINUOUS
 10
998.292000
 20
398.451000
 11
999.292000
 21
398.451000
  0
LINE
  8
1
 62
7
  6
CONTINUOUS
 10
999.292000
 20
398.451000
 11
999.292000
 21
381.451000
  0
LINE
  8
1
 62
7
  6
CONTINUOUS
 10
999.292000
 20
381.451000
 11
998.292000
 21
381.451000
  0
LINE
  8
1
 62
7
  6
CONTINUOUS
 10
999.292000
 20
398.451000
 11
1001.292000
 21
398.451000
  0
LINE
  8
1
 62
7
  6
CONTINUOUS
 10
1001.292000
 20
398.451000
 11
1002.292000
 21
397.451000
  0
LINE
  8
1
 62
7
  6
CONTINUOUS
 10
1001.292000
 20
381.451000
 11
999.292000
 21
381.451000
  0
LINE
  8
1
 62
7
  6
CONTINUOUS
 10
1002.292000
 20
397.451000
 11
1002.292000
 21
382.451000
  0
LINE
  8
1
 62
7
  6
CONTINUOUS
 10
1001.292000
 20
381.451000
 11
1002.292000
 21
382.451000
  0
LINE
  8
1
 62
7
  6
CONTINUOUS
 10
1001.292000
 20
398.451000
 11
1001.292000
 21
381.451000
  0
LINE
  8
1
 62
7
  6
CONTINUOUS
 10
990.042000
 20
398.951000
 11
990.042000
 21
427.951000
  0
LINE
  8
1
 62
7
  6
CONTINUOUS
 10
994.042000
 20
398.951000
 11
994.042000
 21
427.451000
  0
LINE
  8
1
 62
7
  6
CONTINUOUS
 10
998.292000
 20
380.951000
 11
998.292000
 21
352.451000
  0
LINE
  8
1
 62
7
  6
CONTINUOUS
 10
994.292000
 20
352.451000
 11
994.292000
 21
380.951000
  0
LINE
  8
1
 62
7
  6
CONTINUOUS
 10
990.042000
 20
398.951000
 11
990.042000
 21
351.951000
  0
LINE
  8
1
 62
7
  6
CONTINUOUS
 10
989.042000
 20
372.451000
 11
990.042000
 21
371.451000
  0
LINE
  8
1
 62
7
  6
CONTINUOUS
 10
989.042000
 20
372.451000
 11
989.042000
 21
351.951000
  0
LINE
  8
1
 62
7
  6
CONTINUOUS
 10
994.292000
 20
425.951000
 11
994.042000
 21
425.951000
  0
LINE
  8
1
 62
7
  6
CONTINUOUS
 10
994.292000
 20
410.951000
 11
994.042000
 21
410.951000
  0
LINE
  8
1
 62
7
  6
CONTINUOUS
 10
994.292000
 20
368.951000
 11
994.042000
 21
368.951000
  0
LINE
  8
1
 62
7
  6
CONTINUOUS
 10
994.292000
 20
353.951000
 11
994.042000
 21
353.951000
  0
LINE
  8
1
 62
7
  6
CONTINUOUS
 10
998.292000
 20
369.951000
 11
999.292000
 21
369.951000
  0
LINE
  8
1
 62
7
  6
CONTINUOUS
 10
999.292000
 20
369.951000
 11
999.292000
 21
352.951000
  0
LINE
  8
1
 62
7
  6
CONTINUOUS
 10
999.292000
 20
352.951000
 11
998.292000
 21
352.951000
  0
LINE
  8
1
 62
7
  6
CONTINUOUS
 10
999.292000
 20
369.951000
 11
1001.292000
 21
369.951000
  0
LINE
  8
1
 62
7
  6
CONTINUOUS
 10
1001.292000
 20
369.951000
 11
1002.292000
 21
368.951000
  0
LINE
  8
1
 62
7
  6
CONTINUOUS
 10
1001.292000
 20
352.951000
 11
999.292000
 21
352.951000
  0
LINE
  8
1
 62
7
  6
CONTINUOUS
 10
1002.292000
 20
368.951000
 11
1002.292000
 21
353.951000
  0
LINE
  8
1
 62
7
  6
CONTINUOUS
 10
1001.292000
 20
352.951000
 11
1002.292000
 21
353.951000
  0
LINE
  8
1
 62
7
  6
CONTINUOUS
 10
1001.292000
 20
369.951000
 11
1001.292000
 21
352.951000
  0
LINE
  8
1
 62
7
  6
CONTINUOUS
 10
998.292000
 20
426.951000
 11
999.292000
 21
426.951000
  0
LINE
  8
1
 62
7
  6
CONTINUOUS
 10
999.292000
 20
426.951000
 11
999.292000
 21
409.951000
  0
LINE
  8
1
 62
7
  6
CONTINUOUS
 10
999.292000
 20
409.951000
 11
998.292000
 21
409.951000
  0
LINE
  8
1
 62
7
  6
CONTINUOUS
 10
999.292000
 20
426.951000
 11
1001.292000
 21
426.951000
  0
LINE
  8
1
 62
7
  6
CONTINUOUS
 10
1001.292000
 20
426.951000
 11
1002.292000
 21
425.951000
  0
LINE
  8
1
 62
7
  6
CONTINUOUS
 10
1001.292000
 20
409.951000
 11
999.292000
 21
409.951000
  0
LINE
  8
1
 62
7
  6
CONTINUOUS
 10
1002.292000
 20
425.951000
 11
1002.292000
 21
410.951000
  0
LINE
  8
1
 62
7
  6
CONTINUOUS
 10
1001.292000
 20
409.951000
 11
1002.292000
 21
410.951000
  0
LINE
  8
1
 62
7
  6
CONTINUOUS
 10
1001.292000
 20
426.951000
 11
1001.292000
 21
409.951000
  0
LINE
  8
1
 62
7
  6
CONTINUOUS
 10
871.042000
 20
407.451000
 11
870.042000
 21
408.451000
  0
LINE
  8
1
 62
7
  6
CONTINUOUS
 10
870.042000
 20
398.951000
 11
871.042000
 21
399.951000
  0
LINE
  8
1
 62
7
  6
CONTINUOUS
 10
871.042000
 20
379.951000
 11
870.042000
 21
380.951000
  0
LINE
  8
1
 62
7
  6
CONTINUOUS
 10
871.042000
 20
399.951000
 11
871.042000
 21
379.951000
  0
LINE
  8
1
 62
7
  6
CONTINUOUS
 10
871.042000
 20
407.451000
 11
871.042000
 21
427.951000
  0
LINE
  8
1
 62
7
  6
CONTINUOUS
 10
870.042000
 20
398.951000
 11
866.042000
 21
398.951000
  0
LINE
  8
1
 62
7
  6
CONTINUOUS
 10
866.042000
 20
398.951000
 11
866.042000
 21
352.451000
  0
LINE
  8
1
 62
7
  6
CONTINUOUS
 10
870.042000
 20
352.451000
 11
866.042000
 21
352.451000
  0
LINE
  8
1
 62
7
  6
CONTINUOUS
 10
865.792000
 20
380.951000
 11
861.792000
 21
380.951000
  0
LINE
  8
1
 62
7
  6
CONTINUOUS
 10
865.792000
 20
397.451000
 11
866.042000
 21
397.451000
  0
LINE
  8
1
 62
7
  6
CONTINUOUS
 10
865.792000
 20
382.451000
 11
866.042000
 21
382.451000
  0
LINE
  8
1
 62
7
  6
CONTINUOUS
 10
861.792000
 20
380.951000
 11
861.792000
 21
427.451000
  0
LINE
  8
1
 62
7
  6
CONTINUOUS
 10
865.792000
 20
427.451000
 11
861.792000
 21
427.451000
  0
LINE
  8
1
 62
7
  6
CONTINUOUS
 10
865.792000
 20
380.951000
 11
865.792000
 21
427.451000
  0
LINE
  8
1
 62
7
  6
CONTINUOUS
 10
870.042000
 20
427.451000
 11
866.042000
 21
427.451000
  0
LINE
  8
1
 62
7
  6
CONTINUOUS
 10
865.792000
 20
352.451000
 11
861.792000
 21
352.451000
  0
LINE
  8
1
 62
7
  6
CONTINUOUS
 10
861.792000
 20
398.451000
 11
860.792000
 21
398.451000
  0
LINE
  8
1
 62
7
  6
CONTINUOUS
 10
860.792000
 20
398.451000
 11
860.792000
 21
381.451000
  0
LINE
  8
1
 62
7
  6
CONTINUOUS
 10
860.792000
 20
381.451000
 11
861.792000
 21
381.451000
  0
LINE
  8
1
 62
7
  6
CONTINUOUS
 10
860.792000
 20
398.451000
 11
858.792000
 21
398.451000
  0
LINE
  8
1
 62
7
  6
CONTINUOUS
 10
858.792000
 20
398.451000
 11
857.792000
 21
397.451000
  0
LINE
  8
1
 62
7
  6
CONTINUOUS
 10
858.792000
 20
381.451000
 11
860.792000
 21
381.451000
  0
LINE
  8
1
 62
7
  6
CONTINUOUS
 10
857.792000
 20
397.451000
 11
857.792000
 21
382.451000
  0
LINE
  8
1
 62
7
  6
CONTINUOUS
 10
858.792000
 20
381.451000
 11
857.792000
 21
382.451000
  0
LINE
  8
1
 62
7
  6
CONTINUOUS
 10
858.792000
 20
398.451000
 11
858.792000
 21
381.451000
  0
LINE
  8
1
 62
7
  6
CONTINUOUS
 10
870.042000
 20
398.951000
 11
870.042000
 21
427.951000
  0
LINE
  8
1
 62
7
  6
CONTINUOUS
 10
866.042000
 20
398.951000
 11
866.042000
 21
427.451000
  0
LINE
  8
1
 62
7
  6
CONTINUOUS
 10
861.792000
 20
380.951000
 11
861.792000
 21
352.451000
  0
LINE
  8
1
 62
7
  6
CONTINUOUS
 10
865.792000
 20
352.451000
 11
865.792000
 21
380.951000
  0
LINE
  8
1
 62
7
  6
CONTINUOUS
 10
870.042000
 20
398.951000
 11
870.042000
 21
351.951000
  0
LINE
  8
1
 62
7
  6
CONTINUOUS
 10
871.042000
 20
372.451000
 11
870.042000
 21
371.451000
  0
LINE
  8
1
 62
7
  6
CONTINUOUS
 10
871.042000
 20
372.451000
 11
871.042000
 21
351.951000
  0
LINE
  8
1
 62
7
  6
CONTINUOUS
 10
865.792000
 20
425.951000
 11
866.042000
 21
425.951000
  0
LINE
  8
1
 62
7
  6
CONTINUOUS
 10
865.792000
 20
410.951000
 11
866.042000
 21
410.951000
  0
LINE
  8
1
 62
7
  6
CONTINUOUS
 10
865.792000
 20
368.951000
 11
866.042000
 21
368.951000
  0
LINE
  8
1
 62
7
  6
CONTINUOUS
 10
865.792000
 20
353.951000
 11
866.042000
 21
353.951000
  0
LINE
  8
1
 62
7
  6
CONTINUOUS
 10
861.792000
 20
369.951000
 11
860.792000
 21
369.951000
  0
LINE
  8
1
 62
7
  6
CONTINUOUS
 10
860.792000
 20
369.951000
 11
860.792000
 21
352.951000
  0
LINE
  8
1
 62
7
  6
CONTINUOUS
 10
860.792000
 20
352.951000
 11
861.792000
 21
352.951000
  0
LINE
  8
1
 62
7
  6
CONTINUOUS
 10
860.792000
 20
369.951000
 11
858.792000
 21
369.951000
  0
LINE
  8
1
 62
7
  6
CONTINUOUS
 10
858.792000
 20
369.951000
 11
857.792000
 21
368.951000
  0
LINE
  8
1
 62
7
  6
CONTINUOUS
 10
858.792000
 20
352.951000
 11
860.792000
 21
352.951000
  0
LINE
  8
1
 62
7
  6
CONTINUOUS
 10
857.792000
 20
368.951000
 11
857.792000
 21
353.951000
  0
LINE
  8
1
 62
7
  6
CONTINUOUS
 10
858.792000
 20
352.951000
 11
857.792000
 21
353.951000
  0
LINE
  8
1
 62
7
  6
CONTINUOUS
 10
858.792000
 20
369.951000
 11
858.792000
 21
352.951000
  0
LINE
  8
1
 62
7
  6
CONTINUOUS
 10
861.792000
 20
426.951000
 11
860.792000
 21
426.951000
  0
LINE
  8
1
 62
7
  6
CONTINUOUS
 10
860.792000
 20
426.951000
 11
860.792000
 21
409.951000
  0
LINE
  8
1
 62
7
  6
CONTINUOUS
 10
860.792000
 20
409.951000
 11
861.792000
 21
409.951000
  0
LINE
  8
1
 62
7
  6
CONTINUOUS
 10
860.792000
 20
426.951000
 11
858.792000
 21
426.951000
  0
LINE
  8
1
 62
7
  6
CONTINUOUS
 10
858.792000
 20
426.951000
 11
857.792000
 21
425.951000
  0
LINE
  8
1
 62
7
  6
CONTINUOUS
 10
858.792000
 20
409.951000
 11
860.792000
 21
409.951000
  0
LINE
  8
1
 62
7
  6
CONTINUOUS
 10
857.792000
 20
425.951000
 11
857.792000
 21
410.951000
  0
LINE
  8
1
 62
7
  6
CONTINUOUS
 10
858.792000
 20
409.951000
 11
857.792000
 21
410.951000
  0
LINE
  8
1
 62
7
  6
CONTINUOUS
 10
858.792000
 20
426.951000
 11
858.792000
 21
409.951000
  0
LINE
  8
1
 62
7
  6
CONTINUOUS
 10
924.042000
 20
355.905732
 11
936.042000
 21
355.905732
  0
LINE
  8
1
 62
7
  6
DASHDOT
 10
854.792000
 20
361.451000
 11
1005.292000
 21
361.451000
  0
LINE
  8
1
 62
7
  6
DASHDOT
 10
852.792000
 20
389.951000
 11
1007.292000
 21
389.951000
  0
LINE
  8
1
 62
7
  6
DASHDOT
 10
854.792000
 20
418.451000
 11
1005.292000
 21
418.451000
  0
CIRCLE
  8
1
 62
7
  6
CONTINUOUS
 10
873.542000
 20
361.451000
 40
2.000000
  0
CIRCLE
  8
1
 62
7
  6
CONTINUOUS
 10
873.542000
 20
361.451000
 40
1.650000
  0
LINE
  8
1
 62
7
  6
DASHDOT
 10
873.542000
 20
364.451000
 11
873.542000
 21
358.451000
  0
CIRCLE
  8
1
 62
7
  6
CONTINUOUS
 10
873.542000
 20
361.451000
 40
1.500000
  0
LINE
  8
1
 62
7
  6
CONTINUOUS
 10
872.942000
 20
360.451000
 11
872.342000
 21
361.451000
  0
LINE
  8
1
 62
7
  6
CONTINUOUS
 10
872.342000
 20
361.451000
 11
872.942000
 21
362.451000
  0
LINE
  8
1
 62
7
  6
CONTINUOUS
 10
872.942000
 20
362.451000
 11
874.142000
 21
362.451000
  0
LINE
  8
1
 62
7
  6
CONTINUOUS
 10
874.142000
 20
362.451000
 11
874.742000
 21
361.451000
  0
LINE
  8
1
 62
7
  6
CONTINUOUS
 10
874.742000
 20
361.451000
 11
874.142000
 21
360.451000
  0
LINE
  8
1
 62
7
  6
CONTINUOUS
 10
874.142000
 20
360.451000
 11
872.942000
 21
360.451000
  0
CIRCLE
  8
1
 62
7
  6
CONTINUOUS
 10
986.542000
 20
361.451000
 40
2.000000
  0
CIRCLE
  8
1
 62
7
  6
CONTINUOUS
 10
986.542000
 20
361.451000
 40
1.650000
  0
LINE
  8
1
 62
7
  6
DASHDOT
 10
986.542000
 20
364.451000
 11
986.542000
 21
358.451000
  0
CIRCLE
  8
1
 62
7
  6
CONTINUOUS
 10
986.542000
 20
361.451000
 40
1.500000
  0
LINE
  8
1
 62
7
  6
CONTINUOUS
 10
987.142000
 20
360.451000
 11
987.742000
 21
361.451000
  0
LINE
  8
1
 62
7
  6
CONTINUOUS
 10
987.742000
 20
361.451000
 11
987.142000
 21
362.451000
  0
LINE
  8
1
 62
7
  6
CONTINUOUS
 10
987.142000
 20
362.451000
 11
985.942000
 21
362.451000
  0
LINE
  8
1
 62
7
  6
CONTINUOUS
 10
985.942000
 20
362.451000
 11
985.342000
 21
361.451000
  0
LINE
  8
1
 62
7
  6
CONTINUOUS
 10
985.342000
 20
361.451000
 11
985.942000
 21
360.451000
  0
LINE
  8
1
 62
7
  6
CONTINUOUS
 10
985.942000
 20
360.451000
 11
987.142000
 21
360.451000
  0
CIRCLE
  8
1
 62
7
  6
CONTINUOUS
 10
986.542000
 20
418.451000
 40
2.000000
  0
CIRCLE
  8
1
 62
7
  6
CONTINUOUS
 10
986.542000
 20
418.451000
 40
1.650000
  0
LINE
  8
1
 62
7
  6
DASHDOT
 10
986.542000
 20
415.451000
 11
986.542000
 21
421.451000
  0
CIRCLE
  8
1
 62
7
  6
CONTINUOUS
 10
986.542000
 20
418.451000
 40
1.500000
  0
LINE
  8
1
 62
7
  6
CONTINUOUS
 10
987.142000
 20
419.451000
 11
987.742000
 21
418.451000
  0
LINE
  8
1
 62
7
  6
CONTINUOUS
 10
987.742000
 20
418.451000
 11
987.142000
 21
417.451000
  0
LINE
  8
1
 62
7
  6
CONTINUOUS
 10
987.142000
 20
417.451000
 11
985.942000
 21
417.451000
  0
LINE
  8
1
 62
7
  6
CONTINUOUS
 10
985.942000
 20
417.451000
 11
985.342000
 21
418.451000
  0
LINE
  8
1
 62
7
  6
CONTINUOUS
 10
985.342000
 20
418.451000
 11
985.942000
 21
419.451000
  0
LINE
  8
1
 62
7
  6
CONTINUOUS
 10
985.942000
 20
419.451000
 11
987.142000
 21
419.451000
  0
CIRCLE
  8
1
 62
7
  6
CONTINUOUS
 10
873.542000
 20
418.451000
 40
2.000000
  0
CIRCLE
  8
1
 62
7
  6
CONTINUOUS
 10
873.542000
 20
418.451000
 40
1.650000
  0
LINE
  8
1
 62
7
  6
DASHDOT
 10
873.542000
 20
415.451000
 11
873.542000
 21
421.451000
  0
CIRCLE
  8
1
 62
7
  6
CONTINUOUS
 10
873.542000
 20
418.451000
 40
1.500000
  0
LINE
  8
1
 62
7
  6
CONTINUOUS
 10
872.942000
 20
419.451000
 11
872.342000
 21
418.451000
  0
LINE
  8
1
 62
7
  6
CONTINUOUS
 10
872.342000
 20
418.451000
 11
872.942000
 21
417.451000
  0
LINE
  8
1
 62
7
  6
CONTINUOUS
 10
872.942000
 20
417.451000
 11
874.142000
 21
417.451000
  0
LINE
  8
1
 62
7
  6
CONTINUOUS
 10
874.142000
 20
417.451000
 11
874.742000
 21
418.451000
  0
LINE
  8
1
 62
7
  6
CONTINUOUS
 10
874.742000
 20
418.451000
 11
874.142000
 21
419.451000
  0
LINE
  8
1
 62
7
  6
CONTINUOUS
 10
874.142000
 20
419.451000
 11
872.942000
 21
419.451000
  0
ARC
  8
1
 62
7
  6
CONTINUOUS
 10
960.011538
 20
417.520365
 40
1.309576
 50
-67.703357
 51
-36.575573
  0
ARC
  8
1
 62
7
  6
CONTINUOUS
 10
959.618253
 20
417.831146
 40
1.810665
 50
-37.057438
 51
-11.887268
  0
ARC
  8
1
 62
7
  6
CONTINUOUS
 10
958.787736
 20
418.050145
 40
2.668833
 50
-12.815333
 51
6.534333
  0
ARC
  8
1
 62
7
  6
CONTINUOUS
 10
958.070704
 20
418.003230
 40
3.386726
 50
5.942436
 51
22.343040
  0
ARC
  8
1
 62
7
  6
CONTINUOUS
 10
958.005258
 20
417.991478
 40
3.451754
 50
22.110481
 51
38.200043
  0
ARC
  8
1
 62
7
  6
CONTINUOUS
 10
958.508249
 20
418.383026
 40
2.814342
 50
38.268318
 51
56.608682
  0
ARC
  8
1
 62
7
  6
CONTINUOUS
 10
959.002288
 20
419.106947
 40
1.938071
 50
57.024818
 51
80.515888
  0
ARC
  8
1
 62
7
  6
CONTINUOUS
 10
959.119342
 20
419.677438
 40
1.356260
 50
81.422161
 51
111.452768
  0
ARC
  8
1
 62
7
  6
CONTINUOUS
 10
959.120167
 20
419.728075
 40
1.309576
 50
112.296643
 51
143.424427
  0
ARC
  8
1
 62
7
  6
CONTINUOUS
 10
959.513452
 20
419.417293
 40
1.810665
 50
142.942562
 51
168.112732
  0
ARC
  8
1
 62
7
  6
CONTINUOUS
 10
960.343969
 20
419.198294
 40
2.668833
 50
167.184667
 51
-173.465667
  0
ARC
  8
1
 62
7
  6
CONTINUOUS
 10
961.061001
 20
419.245210
 40
3.386726
 50
-174.057564
 51
-157.656960
  0
ARC
  8
1
 62
7
  6
CONTINUOUS
 10
961.126447
 20
419.256961
 40
3.451754
 50
-157.889520
 51
-141.799957
  0
ARC
  8
1
 62
7
  6
CONTINUOUS
 10
960.623456
 20
418.865414
 40
2.814342
 50
-141.731682
 51
-123.391318
  0
ARC
  8
1
 62
7
  6
CONTINUOUS
 10
960.129417
 20
418.141492
 40
1.938071
 50
-122.975182
 51
-99.484112
  0
ARC
  8
1
 62
7
  6
CONTINUOUS
 10
960.012363
 20
417.571001
 40
1.356260
 50
-98.577839
 51
-68.547232
  0
ARC
  8
1
 62
7
  6
CONTINUOUS
 10
960.513164
 20
418.236628
 40
0.785746
 50
-67.703356
 51
-36.575573
  0
ARC
  8
1
 62
7
  6
CONTINUOUS
 10
960.277193
 20
418.423097
 40
1.086399
 50
-37.057438
 51
-11.887268
  0
ARC
  8
1
 62
7
  6
CONTINUOUS
 10
959.778883
 20
418.554496
 40
1.601300
 50
-12.815333
 51
6.534333
  0
ARC
  8
1
 62
7
  6
CONTINUOUS
 10
959.348664
 20
418.526347
 40
2.032035
 50
5.942436
 51
22.343040
  0
ARC
  8
1
 62
7
  6
CONTINUOUS
 10
959.309396
 20
418.519296
 40
2.071053
 50
22.110481
 51
38.200043
  0
ARC
  8
1
 62
7
  6
CONTINUOUS
 10
959.611190
 20
418.754224
 40
1.688605
 50
38.268318
 51
56.608682
  0
ARC
  8
1
 62
7
  6
CONTINUOUS
 10
959.907614
 20
419.188577
 40
1.162843
 50
57.024818
 51
80.515888
  0
ARC
  8
1
 62
7
  6
CONTINUOUS
 10
959.977846
 20
419.530872
 40
0.813756
 50
81.422161
 51
111.452768
  0
ARC
  8
1
 62
7
  6
CONTINUOUS
 10
959.978341
 20
419.561254
 40
0.785746
 50
112.296643
 51
143.424427
  0
ARC
  8
1
 62
7
  6
CONTINUOUS
 10
960.214313
 20
419.374785
 40
1.086399
 50
142.942563
 51
168.112732
  0
ARC
  8
1
 62
7
  6
CONTINUOUS
 10
960.712623
 20
419.243385
 40
1.601300
 50
167.184667
 51
-173.465667
  0
ARC
  8
1
 62
7
  6
CONTINUOUS
 10
961.142841
 20
419.271535
 40
2.032036
 50
-174.057564
 51
-157.656960
  0
ARC
  8
1
 62
7
  6
CONTINUOUS
 10
961.182109
 20
419.278586
 40
2.071053
 50
-157.889520
 51
-141.799957
  0
ARC
  8
1
 62
7
  6
CONTINUOUS
 10
960.880315
 20
419.043657
 40
1.688605
 50
-141.731682
 51
-123.391318
  0
ARC
  8
1
 62
7
  6
CONTINUOUS
 10
960.583891
 20
418.609304
 40
1.162843
 50
-122.975182
 51
-99.484112
  0
ARC
  8
1
 62
7
  6
CONTINUOUS
 10
960.513659
 20
418.267010
 40
0.813756
 50
-98.577839
 51
-68.547232
  0
LINE
  8
1
 62
7
  6
DASHDOT
 10
942.486165
 20
411.669646
 11
963.056283
 21
420.043008
  0
LINE
  8
1
 62
7
  6
CONTINUOUS
 10
947.542000
 20
416.936281
 11
947.672378
 21
416.479959
  0
LINE
  8
1
 62
7
  6
CONTINUOUS
 10
950.244726
 20
412.128688
 11
960.508394
 21
416.306661
  0
LINE
  8
1
 62
7
  6
CONTINUOUS
 10
945.565578
 20
415.622356
 11
958.687690
 21
420.963900
  0
LINE
  8
1
 62
7
  6
CONTINUOUS
 10
943.149043
 20
416.936281
 11
947.542000
 21
416.936281
  0
CIRCLE
  8
1
 62
7
  6
CONTINUOUS
 10
930.042000
 20
389.951000
 40
29.000000
  0
CIRCLE
  8
1
 62
7
  6
CONTINUOUS
 10
930.042000
 20
389.951000
 40
30.000000
  0
CIRCLE
  8
1
 62
7
  6
CONTINUOUS
 10
970.042000
 20
389.951000
 40
5.000000
  0
CIRCLE
  8
1
 62
7
  6
CONTINUOUS
 10
970.042000
 20
389.951000
 40
4.500000
  0
LINE
  8
1
 62
7
  6
DASHDOT
 10
970.042000
 20
383.951000
 11
970.042000
 21
395.951000
  0
CIRCLE
  8
1
 62
7
  6
CONTINUOUS
 10
890.042000
 20
389.951000
 40
5.000000
  0
CIRCLE
  8
1
 62
7
  6
CONTINUOUS
 10
890.042000
 20
389.951000
 40
4.500000
  0
LINE
  8
1
 62
7
  6
DASHDOT
 10
890.042000
 20
383.951000
 11
890.042000
 21
395.951000
  0
LINE
  8
1
 62
7
  6
CONTINUOUS
 10
958.326271
 20
399.951000
 11
989.042000
 21
399.951000
  0
LINE
  8
1
 62
7
  6
CONTINUOUS
 10
871.042000
 20
399.951000
 11
901.757729
 21
399.951000
  0
LINE
  8
1
 62
7
  6
CONTINUOUS
 10
901.757729
 20
379.951000
 11
871.042000
 21
379.951000
  0
LINE
  8
1
 62
7
  6
CONTINUOUS
 10
989.042000
 20
379.951000
 11
958.326271
 21
379.951000
  0
LINE
  8
1
 62
7
  6
CONTINUOUS
 10
905.675014
 20
407.451000
 11
871.042000
 21
407.451000
  0
LINE
  8
1
 62
7
  6
CONTINUOUS
 10
989.042000
 20
407.451000
 11
954.408986
 21
407.451000
  0
LINE
  8
1
 62
7
  6
CONTINUOUS
 10
905.675014
 20
372.451000
 11
871.042000
 21
372.451000
  0
LINE
  8
1
 62
7
  6
CONTINUOUS
 10
989.042000
 20
372.451000
 11
954.408986
 21
372.451000
  0
LINE
  8
1
 62
7
  6
CONTINUOUS
 10
924.042000
 20
355.905732
 11
924.042000
 21
360.557123
  0
LINE
  8
1
 62
7
  6
CONTINUOUS
 10
936.042000
 20
360.557123
 11
936.042000
 21
355.905732
  0
LINE
  8
1
 62
7
  6
DASHDOT
 10
930.042000
 20
440.951000
 11
930.042000
 21
338.951000
  0
ARC
  8
1
 62
7
  6
CONTINUOUS
 10
818.042000
 20
368.451000
 40
1.500000
 50
-90.000000
 51
-32.230953
  0
ARC
  8
1
 62
7
  6
CONTINUOUS
 10
818.042000
 20
368.451000
 40
1.500000
 50
-147.769047
 51
-90.000000
  0
ARC
  8
1
 62
7
  6
CONTINUOUS
 10
814.342000
 20
377.351000
 40
0.500000
 50
-78.463041
 51
90.000000
  0
ARC
  8
1
 62
7
  6
CONTINUOUS
 10
821.742000
 20
377.351000
 40
0.500000
 50
90.000000
 51
-101.536959
  0
LINE
  8
1
 62
7
  6
CONTINUOUS
 10
816.369074
 20
367.651000
 11
819.643881
 21
367.651000
  0
LINE
  8
1
 62
7
  6
CONTINUOUS
 10
819.935301
 20
368.129806
 11
819.643881
 21
367.651000
  0
LINE
  8
1
 62
7
  6
CONTINUOUS
 10
816.148699
 20
368.129806
 11
816.369074
 21
367.651000
  0
LINE
  8
1
 62
7
  6
CONTINUOUS
 10
815.542000
 20
371.251000
 11
816.148699
 21
368.129806
  0
LINE
  8
1
 62
7
  6
CONTINUOUS
 10
820.542000
 20
371.251000
 11
819.935301
 21
368.129806
  0
LINE
  8
1
 62
7
  6
CONTINUOUS
 10
815.542000
 20
374.051000
 11
820.542000
 21
374.051000
  0
LINE
  8
1
 62
7
  6
CONTINUOUS
 10
815.542000
 20
374.051000
 11
815.742000
 21
374.251000
  0
LINE
  8
1
 62
7
  6
CONTINUOUS
 10
820.542000
 20
374.051000
 11
820.342000
 21
374.251000
  0
LINE
  8
1
 62
7
  6
CONTINUOUS
 10
815.542000
 20
371.251000
 11
815.542000
 21
374.051000
  0
LINE
  8
1
 62
7
  6
CONTINUOUS
 10
820.542000
 20
371.251000
 11
815.542000
 21
371.251000
  0
LINE
  8
1
 62
7
  6
CONTINUOUS
 10
820.542000
 20
374.051000
 11
820.542000
 21
371.251000
  0
LINE
  8
1
 62
7
  6
CONTINUOUS
 10
815.742000
 20
374.251000
 11
820.342000
 21
374.251000
  0
LINE
  8
1
 62
7
  6
CONTINUOUS
 10
820.242000
 20
374.251000
 11
815.842000
 21
374.251000
  0
LINE
  8
1
 62
7
  6
CONTINUOUS
 10
815.642000
 20
374.451000
 11
815.642000
 21
374.851000
  0
LINE
  8
1
 62
7
  6
CONTINUOUS
 10
820.442000
 20
374.851000
 11
820.442000
 21
374.451000
  0
LINE
  8
1
 62
7
  6
CONTINUOUS
 10
814.442000
 20
376.861102
 11
814.442000
 21
375.051000
  0
LINE
  8
1
 62
7
  6
CONTINUOUS
 10
814.642000
 20
374.851000
 11
821.442000
 21
374.851000
  0
LINE
  8
1
 62
7
  6
CONTINUOUS
 10
814.142000
 20
377.851000
 11
821.942000
 21
377.851000
  0
LINE
  8
1
 62
7
  6
CONTINUOUS
 10
821.642000
 20
375.051000
 11
821.642000
 21
376.861102
  0
LINE
  8
1
 62
7
  6
CONTINUOUS
 10
821.642000
 20
376.861102
 11
814.442000
 21
376.861102
  0
LINE
  8
1
 62
7
  6
CONTINUOUS
 10
820.442000
 20
374.451000
 11
820.242000
 21
374.251000
  0
LINE
  8
1
 62
7
  6
CONTINUOUS
 10
815.642000
 20
374.451000
 11
815.842000
 21
374.251000
  0
LINE
  8
1
 62
7
  6
CONTINUOUS
 10
814.642000
 20
374.851000
 11
814.442000
 21
375.051000
  0
LINE
  8
1
 62
7
  6
CONTINUOUS
 10
821.642000
 20
375.051000
 11
821.442000
 21
374.851000
  0
LINE
  8
1
 62
7
  6
CONTINUOUS
 10
821.642000
 20
375.051000
 11
814.442000
 21
375.051000
  0
LINE
  8
1
 62
7
  6
CONTINUOUS
 10
815.642000
 20
374.451000
 11
820.442000
 21
374.451000
  0
LINE
  8
1
 62
7
  6
CONTINUOUS
 10
821.942000
 20
381.451000
 11
821.942000
 21
377.851000
  0
LINE
  8
1
 62
7
  6
CONTINUOUS
 10
814.142000
 20
377.851000
 11
814.142000
 21
381.451000
  0
ARC
  8
1
 62
7
  6
CONTINUOUS
 10
794.147728
 20
453.093431
 40
3.000000
 50
93.000000
 51
176.152023
  0
ARC
  8
1
 62
7
  6
CONTINUOUS
 10
801.392000
 20
456.201000
 40
0.500000
 50
90.000000
 51
180.000000
  0
ARC
  8
1
 62
7
  6
CONTINUOUS
 10
790.942000
 20
454.651000
 40
0.500000
 50
90.000000
 51
180.000000
  0
ARC
  8
1
 62
7
  6
CONTINUOUS
 10
794.147728
 20
399.808569
 40
3.000000
 50
-176.152023
 51
-93.000000
  0
ARC
  8
1
 62
7
  6
CONTINUOUS
 10
814.342000
 20
377.351000
 40
0.500000
 50
-78.463041
 51
90.000000
  0
ARC
  8
1
 62
7
  6
CONTINUOUS
 10
821.742000
 20
377.351000
 40
0.500000
 50
90.000000
 51
-101.536959
  0
ARC
  8
1
 62
7
  6
CONTINUOUS
 10
1190.252741
 20
426.451000
 40
400.000000
 50
178.237402
 51
-176.152023
  0
ARC
  8
1
 62
7
  6
CONTINUOUS
 10
1190.252741
 20
426.451000
 40
400.000000
 50
176.152023
 51
178.237402
  0
ARC
  8
1
 62
7
  6
CONTINUOUS
 10
823.842000
 20
450.551000
 40
1.000000
 50
0.000000
 51
90.000000
  0
ARC
  8
1
 62
7
  6
CONTINUOUS
 10
823.842000
 20
402.351000
 40
1.000000
 50
-90.000000
 51
0.000000
  0
LINE
  8
1
 62
7
  6
CONTINUOUS
 10
823.842000
 20
451.551000
 11
823.342000
 21
451.551000
  0
LINE
  8
1
 62
7
  6
CONTINUOUS
 10
823.342000
 20
401.351000
 11
823.842000
 21
401.351000
  0
LINE
  8
1
 62
7
  6
CONTINUOUS
 10
824.842000
 20
450.551000
 11
824.842000
 21
402.351000
  0
LINE
  8
1
 62
7
  6
CONTINUOUS
 10
814.442000
 20
376.861102
 11
821.642000
 21
376.861102
  0
LINE
  8
1
 62
7
  6
CONTINUOUS
 10
821.942000
 20
377.851000
 11
814.142000
 21
377.851000
  0
LINE
  8
1
 62
7
  6
CONTINUOUS
 10
821.642000
 20
374.851000
 11
814.442000
 21
374.851000
  0
LINE
  8
1
 62
7
  6
CONTINUOUS
 10
814.442000
 20
374.851000
 11
814.442000
 21
376.861102
  0
LINE
  8
1
 62
7
  6
CONTINUOUS
 10
821.642000
 20
376.861102
 11
821.642000
 21
374.851000
  0
LINE
  8
1
 62
7
  6
CONTINUOUS
 10
813.742000
 20
455.551000
 11
813.542000
 21
455.351000
  0
LINE
  8
1
 62
7
  6
CONTINUOUS
 10
813.542000
 20
453.451000
 11
813.542000
 21
455.351000
  0
LINE
  8
1
 62
7
  6
CONTINUOUS
 10
822.542000
 20
455.351000
 11
813.542000
 21
455.351000
  0
LINE
  8
1
 62
7
  6
CONTINUOUS
 10
822.542000
 20
455.351000
 11
822.342000
 21
455.551000
  0
LINE
  8
1
 62
7
  6
CONTINUOUS
 10
822.542000
 20
455.351000
 11
822.542000
 21
453.451000
  0
LINE
  8
1
 62
7
  6
CONTINUOUS
 10
823.292461
 20
455.551000
 11
812.792472
 21
455.551000
  0
LINE
  8
1
 62
7
  6
CONTINUOUS
 10
821.940634
 20
476.051000
 11
814.142278
 21
476.051000
  0
LINE
  8
1
 62
7
  6
CONTINUOUS
 10
813.642278
 20
475.551000
 11
822.440634
 21
475.551000
  0
LINE
  8
1
 62
7
  6
CONTINUOUS
 10
822.440634
 20
475.551000
 11
822.641315
 21
464.051000
  0
LINE
  8
1
 62
7
  6
CONTINUOUS
 10
813.642278
 20
475.551000
 11
813.539698
 21
464.051000
  0
LINE
  8
1
 62
7
  6
CONTINUOUS
 10
822.440634
 20
475.551000
 11
821.940634
 21
476.051000
  0
LINE
  8
1
 62
7
  6
CONTINUOUS
 10
813.642278
 20
475.551000
 11
814.142278
 21
476.051000
  0
LINE
  8
1
 62
7
  6
CONTINUOUS
 10
823.291315
 20
464.051000
 11
823.292461
 21
455.551000
  0
LINE
  8
1
 62
7
  6
CONTINUOUS
 10
823.291315
 20
464.051000
 11
812.791315
 21
464.051000
  0
LINE
  8
1
 62
7
  6
CONTINUOUS
 10
812.791315
 20
464.051000
 11
812.792472
 21
455.551000
  0
LINE
  8
1
 62
7
  6
CONTINUOUS
 10
805.592000
 20
396.451000
 11
805.592000
 21
456.701000
  0
LINE
  8
1
 62
7
  6
CONTINUOUS
 10
800.892000
 20
420.749891
 11
805.592000
 21
420.749891
  0
LINE
  8
1
 62
7
  6
CONTINUOUS
 10
800.892000
 20
421.734665
 11
805.592000
 21
421.734665
  0
LINE
  8
1
 62
7
  6
CONTINUOUS
 10
800.892000
 20
423.338611
 11
805.592000
 21
423.338611
  0
LINE
  8
1
 62
7
  6
CONTINUOUS
 10
800.892000
 20
424.334771
 11
805.592000
 21
424.334771
  0
LINE
  8
1
 62
7
  6
CONTINUOUS
 10
800.892000
 20
432.152109
 11
805.592000
 21
432.152109
  0
LINE
  8
1
 62
7
  6
CONTINUOUS
 10
800.892000
 20
431.167335
 11
805.592000
 21
431.167335
  0
LINE
  8
1
 62
7
  6
CONTINUOUS
 10
800.892000
 20
429.563389
 11
805.592000
 21
429.563389
  0
LINE
  8
1
 62
7
  6
CONTINUOUS
 10
800.892000
 20
428.344569
 11
805.592000
 21
428.344569
  0
LINE
  8
1
 62
7
  6
CONTINUOUS
 10
800.892000
 20
425.951017
 11
805.592000
 21
425.951017
  0
LINE
  8
1
 62
7
  6
CONTINUOUS
 10
800.892000
 20
396.451000
 11
800.892000
 21
456.451000
  0
LINE
  8
1
 62
7
  6
CONTINUOUS
 10
800.892000
 20
426.950983
 11
805.592000
 21
426.950983
  0
LINE
  8
1
 62
7
  6
CONTINUOUS
 10
805.592000
 20
452.864775
 11
800.892000
 21
452.864775
  0
LINE
  8
1
 62
7
  6
CONTINUOUS
 10
805.592000
 20
454.093388
 11
800.892000
 21
454.093388
  0
LINE
  8
1
 62
7
  6
CONTINUOUS
 10
805.592000
 20
455.111625
 11
800.892000
 21
455.111625
  0
LINE
  8
1
 62
7
  6
CONTINUOUS
 10
805.592000
 20
455.911738
 11
800.892000
 21
455.911738
  0
LINE
  8
1
 62
7
  6
CONTINUOUS
 10
801.392000
 20
456.701000
 11
805.592000
 21
456.701000
  0
LINE
  8
1
 62
7
  6
CONTINUOUS
 10
791.879826
 20
455.151000
 11
790.942000
 21
455.151000
  0
LINE
  8
1
 62
7
  6
CONTINUOUS
 10
790.442000
 20
438.754313
 11
790.442000
 21
454.651000
  0
LINE
  8
1
 62
7
  6
CONTINUOUS
 10
806.392000
 20
397.251000
 11
806.392000
 21
455.651000
  0
LINE
  8
1
 62
7
  6
CONTINUOUS
 10
805.592000
 20
396.451000
 11
800.892000
 21
396.451000
  0
LINE
  8
1
 62
7
  6
CONTINUOUS
 10
805.592000
 20
396.451000
 11
806.392000
 21
397.251000
  0
LINE
  8
1
 62
7
  6
CONTINUOUS
 10
800.892000
 20
456.451000
 11
793.990721
 21
456.089319
  0
LINE
  8
1
 62
7
  6
CONTINUOUS
 10
793.990721
 20
396.812681
 11
800.892000
 21
396.451000
  0
LINE
  8
1
 62
7
  6
CONTINUOUS
 10
806.392000
 20
455.651000
 11
805.592000
 21
456.451000
  0
LINE
  8
1
 62
7
  6
CONTINUOUS
 10
806.392000
 20
453.972260
 11
806.692000
 21
453.982743
  0
LINE
  8
1
 62
7
  6
CONTINUOUS
 10
805.592000
 20
396.317062
 11
801.071701
 21
396.317062
  0
LINE
  8
1
 62
7
  6
CONTINUOUS
 10
805.592000
 20
396.201000
 11
801.392000
 21
396.201000
  0
LINE
  8
1
 62
7
  6
CONTINUOUS
 10
822.342000
 20
448.451000
 11
809.342000
 21
448.451000
  0
LINE
  8
1
 62
7
  6
CONTINUOUS
 10
809.342000
 20
448.451000
 11
809.342000
 21
404.451000
  0
LINE
  8
1
 62
7
  6
CONTINUOUS
 10
809.342000
 20
404.451000
 11
822.342000
 21
404.451000
  0
LINE
  8
1
 62
7
  6
CONTINUOUS
 10
822.342000
 20
404.451000
 11
822.342000
 21
448.451000
  0
LINE
  8
1
 62
7
  6
CONTINUOUS
 10
793.892000
 20
448.755905
 11
799.892000
 21
449.065178
  0
LINE
  8
1
 62
7
  6
CONTINUOUS
 10
799.892000
 20
449.065178
 11
799.892000
 21
455.403044
  0
LINE
  8
1
 62
7
  6
CONTINUOUS
 10
799.892000
 20
455.403044
 11
793.892000
 21
455.093771
  0
LINE
  8
1
 62
7
  6
CONTINUOUS
 10
793.892000
 20
455.093771
 11
793.892000
 21
448.755905
  0
LINE
  8
1
 62
7
  6
CONTINUOUS
 10
823.342000
 20
453.451000
 11
806.392000
 21
453.451000
  0
LINE
  8
1
 62
7
  6
CONTINUOUS
 10
806.392000
 20
399.451000
 11
823.342000
 21
399.451000
  0
LINE
  8
1
 62
7
  6
CONTINUOUS
 10
823.342000
 20
399.451000
 11
823.342000
 21
453.451000
  0
LINE
  8
1
 62
7
  6
CONTINUOUS
 10
830.542000
 20
427.951000
 11
830.042000
 21
428.451000
  0
LINE
  8
1
 62
7
  6
CONTINUOUS
 10
830.542000
 20
351.951000
 11
830.042000
 21
351.451000
  0
LINE
  8
1
 62
7
  6
CONTINUOUS
 10
830.042000
 20
344.451000
 11
830.542000
 21
343.951000
  0
LINE
  8
1
 62
7
  6
CONTINUOUS
 10
830.042000
 20
344.451000
 11
830.042000
 21
351.451000
  0
LINE
  8
1
 62
7
  6
CONTINUOUS
 10
830.042000
 20
435.451000
 11
830.542000
 21
435.951000
  0
LINE
  8
1
 62
7
  6
CONTINUOUS
 10
830.042000
 20
428.451000
 11
830.042000
 21
435.451000
  0
CIRCLE
  8
1
 62
7
  6
CONTINUOUS
 10
818.042000
 20
391.951000
 40
7.000000
  0
CIRCLE
  8
1
 62
7
  6
CONTINUOUS
 10
818.042000
 20
391.951000
 40
8.000000
  0
LINE
  8
1
 62
7
  6
CONTINUOUS
 10
847.042000
 20
399.451000
 11
847.042000
 21
381.451000
  0
LINE
  8
1
 62
7
  6
CONTINUOUS
 10
847.042000
 20
381.451000
 11
811.042000
 21
381.451000
  0
LINE
  8
1
 62
7
  6
CONTINUOUS
 10
811.042000
 20
399.451000
 11
847.042000
 21
399.451000
  0
CIRCLE
  8
1
 62
7
  6
CONTINUOUS
 10
840.042000
 20
388.951000
 40
7.000000
  0
CIRCLE
  8
1
 62
7
  6
CONTINUOUS
 10
840.042000
 20
388.951000
 40
8.000000
  0
LINE
  8
1
 62
7
  6
CONTINUOUS
 10
811.042000
 20
381.451000
 11
811.042000
 21
388.078017
  0
LINE
  8
1
 62
7
  6
CONTINUOUS
 10
811.042000
 20
395.823983
 11
811.042000
 21
399.451000
  0
LINE
  8
1
 62
7
  6
CONTINUOUS
 10
827.042000
 20
366.951000
 11
827.042000
 21
356.951000
  0
LINE
  8
1
 62
7
  6
CONTINUOUS
 10
813.042000
 20
356.951000
 11
813.042000
 21
366.951000
  0
LINE
  8
1
 62
7
  6
CONTINUOUS
 10
847.042000
 20
366.951000
 11
847.042000
 21
356.951000
  0
LINE
  8
1
 62
7
  6
CONTINUOUS
 10
847.042000
 20
356.951000
 11
811.042000
 21
356.951000
  0
LINE
  8
1
 62
7
  6
CONTINUOUS
 10
811.042000
 20
356.951000
 11
811.042000
 21
366.951000
  0
LINE
  8
1
 62
7
  6
CONTINUOUS
 10
811.042000
 20
366.951000
 11
847.042000
 21
366.951000
  0
ARC
  8
1
 62
7
  6
CONTINUOUS
 10
840.042000
 20
361.951000
 40
8.000000
 50
-28.955024
 51
28.955024
  0
ARC
  8
1
 62
7
  6
CONTINUOUS
 10
840.042000
 20
361.951000
 40
7.000000
 50
45.584691
 51
55.150095
  0
ARC
  8
1
 62
7
  6
CONTINUOUS
 10
840.042000
 20
361.951000
 40
7.000000
 50
124.849905
 51
134.415309
  0
ARC
  8
1
 62
7
  6
CONTINUOUS
 10
840.042000
 20
361.951000
 40
8.000000
 50
38.682187
 51
60.000000
  0
ARC
  8
1
 62
7
  6
CONTINUOUS
 10
840.042000
 20
361.951000
 40
8.000000
 50
120.000000
 51
141.317813
  0
ARC
  8
1
 62
7
  6
CONTINUOUS
 10
840.042000
 20
361.951000
 40
7.000000
 50
-134.415309
 51
-124.849905
  0
ARC
  8
1
 62
7
  6
CONTINUOUS
 10
840.042000
 20
361.951000
 40
7.000000
 50
-55.150095
 51
-45.584691
  0
ARC
  8
1
 62
7
  6
CONTINUOUS
 10
840.042000
 20
361.951000
 40
8.000000
 50
-141.317813
 51
-120.000000
  0
ARC
  8
1
 62
7
  6
CONTINUOUS
 10
840.042000
 20
361.951000
 40
8.000000
 50
-60.000000
 51
-38.682187
  0
LINE
  8
1
 62
7
  6
CONTINUOUS
 10
844.042000
 20
381.451000
 11
844.042000
 21
366.951000
  0
LINE
  8
1
 62
7
  6
CONTINUOUS
 10
844.042000
 20
356.951000
 11
844.042000
 21
351.951000
  0
LINE
  8
1
 62
7
  6
CONTINUOUS
 10
836.042000
 20
351.951000
 11
836.042000
 21
356.951000
  0
LINE
  8
1
 62
7
  6
CONTINUOUS
 10
836.042000
 20
366.951000
 11
836.042000
 21
381.451000
  0
LINE
  8
1
 62
7
  6
CONTINUOUS
 10
844.042000
 20
427.951000
 11
844.042000
 21
399.451000
  0
LINE
  8
1
 62
7
  6
CONTINUOUS
 10
836.042000
 20
399.451000
 11
836.042000
 21
427.951000
  0
LINE
  8
1
 62
7
  6
DASHDOT
 10
840.042000
 20
429.678000
 11
840.042000
 21
349.010000
  0
LINE
  8
1
 62
7
  6
CONTINUOUS
 10
1029.542000
 20
427.951000
 11
1030.042000
 21
428.451000
  0
LINE
  8
1
 62
7
  6
CONTINUOUS
 10
1029.542000
 20
351.951000
 11
1030.042000
 21
351.451000
  0
LINE
  8
1
 62
7
  6
CONTINUOUS
 10
1030.042000
 20
344.451000
 11
1029.542000
 21
343.951000
  0
LINE
  8
1
 62
7
  6
CONTINUOUS
 10
1030.042000
 20
351.451000
 11
1030.042000
 21
344.451000
  0
LINE
  8
1
 62
7
  6
CONTINUOUS
 10
1030.042000
 20
435.451000
 11
1029.542000
 21
435.951000
  0
LINE
  8
1
 62
7
  6
CONTINUOUS
 10
1030.042000
 20
435.451000
 11
1030.042000
 21
428.451000
  0
LINE
  8
1
 62
7
  6
CONTINUOUS
 10
1029.542000
 20
427.951000
 11
830.542000
 21
427.951000
  0
LINE
  8
1
 62
7
  6
CONTINUOUS
 10
830.542000
 20
351.951000
 11
1029.542000
 21
351.951000
  0
LINE
  8
1
 62
7
  6
CONTINUOUS
 10
1029.542000
 20
343.951000
 11
830.542000
 21
343.951000
  0
LINE
  8
1
 62
7
  6
CONTINUOUS
 10
830.542000
 20
435.951000
 11
1029.542000
 21
435.951000
  0
ENDSEC
  0
EOF
