  0
SECTION
  2
HEADER
  9
$ACADVER
  1
AC1004
  9
$INSBASE
 10
0.000000
 20
0.000000
  9
$EXTMIN
 10
0.000000
 20
0.000000
  9
$EXTMAX
 10
841.000000
 20
594.000000
  9
$LIMMIN
 10
0.000000
 20
0.000000
  9
$LIMMAX
 10
841.000000
 20
594.000000
  9
$VIEWCTR
 10
420.500000
 20
297.000000
  9
$VIEWSIZE
 40
594.000000
  9
$PEXTMIN
 10
0.000000
 20
0.000000
 30
0.000000
  9
$PEXTMAX
 10
841.000000
 20
594.000000
 30
0.000000
  9
$SNAPMODE
 70
     0
  9
$SNAPUNIT
 10
1.000000
 20
1.000000
  9
$SNAPBASE
 10
0.000000
 20
0.000000
  9
$SNAPANG
 50
0.000000
  9
$SNAPISOPAIR
 70
     0
  9
$SNAPSTYLE
 70
     0
  9
$GRIDMODE
 70
     0
  9
$GRIDUNIT
 10
0.000000
 20
0.000000
  9
$ORTHOMODE
 70
     0
  9
$REGENMODE
 70
     1
  9
$FILLMODE
 70
     1
  9
$QTEXTMODE
 70
     0
  9
$DRAGMODE
 70
     2
  9
$LTSCALE
 40
0.250000
  9
$OSMODE
 70
     0
  9
$ATTMODE
 70
     1
  9
$TEXTSIZE
 40
3.500000
  9
$TRACEWID
 40
0.050000
  9
$TEXTSTYLE
  7
STANDARD
  9
$CLAYER
  8
0
  9
$CELTYPE
  6
BYLAYER
  9
$CECOLOR
 62
   256
  9
$DIMSCALE
 40
1.000000
  9
$DIMASZ
 40
1.000000
  9
$DIMEXO
 40
0.000000
  9
$DIMDLI
 40
0.500000
  9
$DIMRND
 40
0.000000
  9
$DIMDLE
 40
0.000000
  9
$DIMEXE
 40
0.000000
  9
$DIMTP
 40
0.000000
  9
$DIMTM
 40
0.000000
  9
$DIMTXT
 40
3.500000
  9
$DIMCEN
 40
0.000000
  9
$DIMTSZ
 40
0.000000
  9
$DIMTOL
 70
     0
  9
$DIMLIM
 70
     0
  9
$DIMTIH
 70
     1
  9
$DIMTOH
 70
     1
  9
$DIMSE1
 70
     0
  9
$DIMSE2
 70
     0
  9
$DIMTAD
 70
     0
  9
$DIMZIN
 70
     0
  9
$DIMBLK
  1

  9
$DIMASO
 70
     0
  9
$DIMSHO
 70
     0
  9
$DIMPOST
  1

  9
$DIMAPOST
  1

  9
$DIMALT
 70
     0
  9
$DIMALTD
 70
     0
  9
$DIMALTF
 40
25.400000
  9
$DIMLFAC
 40
1.000000
  9
$DIMTOFL
 70
     0
  9
$DIMTVP
 40
0.000000
  9
$DIMTIX
 70
     0
  9
$DIMSOXD
 70
     0
  9
$DIMSAH
 70
     0
  9
$DIMBLKL
  1

  9
$DIMBLKR
  1

  9
$LUNITS
 70
     2
  9
$LUPREC
 70
     2
  9
$AXISMODE
 70
     0
  9
$AXISUNIT
 10
1.000000
 20
1.000000
  9
$SKETCHINC
 40
0.000000
  9
$FILLETRAD
 40
0.000000
  9
$AUNITS
 70
     1
  9
$AUPREC
 70
     2
  9
$MENU
  1
ACAD
  9
$ELEVATION
 40
0.000000
  9
$THICKNESS
 40
0.000000
  9
$VIEWDIR
 10
0.000000
 20
0.000000
 30
1.000000
  9
$LIMCHECK
 70
     1
  9
$BLIPMODE
 70
     1
  9
$CHAMFERA
 40
0.000000
  9
$CHAMFERB
 40
0.000000
  9
$FASTZOOM
 70
     1
  9
$SKPOLY
 70
     0
  9
$TDCREATE
 40
0.000000
  9
$TDUPDATE
 40
0.000000
  9
$TDINDWG
 40
0.000000
  9
$TDUSRTIMER
 40
0.000000
  9
$USRTIMER
 70
     1
  9
$ANGBASE
 50
0.000000
  9
$ANGDIR
 70
     0
  9
$PDMODE
 70
     0
  9
$PDSIZE
 40
0.000000
  9
$PLINEWID
 40
0.000000
  9
$COORDS
 70
     2
  9
$USERI1
 70
     0
  9
$USERI2
 70
     0
  9
$USERI3
 70
     0
  9
$USERI4
 70
     0
  9
$USERI5
 70
     0
  9
$USERR1
 40
0.000000
  9
$USERR2
 40
0.000000
  9
$USERR3
 40
0.000000
  9
$USERR4
 40
0.000000
  9
$USERR5
 40
0.000000
  0
ENDSEC
  0
SECTION
  2
TABLES
  0
TABLE
  2
LTYPE
 70
     5
  0
LTYPE
  2
CONTINUOUS
 70
    64
  3
Solid line
 72
    65
 73
     0
 40
0.0
  0
LTYPE
  2
HIDDEN
 70
    64
  3
------------------------
 72
    65
 73
     2
 40
12.6
 49
8.4
 49
-4.2
  0
LTYPE
  2
DOT
 70
    64
  3
････････････････････････
 72
    65
 73
     2
 40
8.0
 49
6.0
 49
-2.0
  0
LTYPE
  2
DASHDOT
 70
    64
  3
--･--･--･--･--･--･--･--
 72
    65
 73
     4
 40
50.5
 49
30.0
 49
-9.0
 49
2.5
 49
-9.0
  0
LTYPE
  2
DIVIDE
 70
    64
  3
--･･--･･--･･--･･--･･--
 72
    65
 73
     6
 40
58.0
 49
30.0
 49
-9.0
 49
2.5
 49
-5.0
 49
2.5
 49
-9.0
  0
LTYPE
  2
ACAD_ISO06W100
 70
    64
  3
____ ... ____ ... ____
 72
    65
 73
     8
 40
37.5
 49
24.0
 49
-3.0
 49
0.5
 49
-3.0
 49
0.5
 49
-3.0
 49
0.5
 49
-3.0
  0
LTYPE
  2
ACAD_ISO14W100
 70
    64
  3
__ . . . __ . . . __ . . . 
 72
    65
 73
     8
 40
25.5
 49
12.0
 49
-3.0
 49
0.5
 49
-3.0
 49
0.5
 49
-3.0
 49
0.5
 49
-3.0
  0
ENDTAB
  0
TABLE
  2
LAYER
 70
1
  0
LAYER
  2
1
 70
64
 62
7
  6
CONTINUOUS
  0
ENDTAB
  0
TABLE
  2
STYLE
 70
     2
  0
STYLE
  2
STANDARD
 70
    64
 40
0.0
 41
1.0
 50
0.0
 71
     0
 42
0.2
  3
TXT
  4

  0
STYLE
  2
KANJI
 70
    64
 40
0.0
 41
1.0
 50
0.0
 71
     0
 42
0.2
  3
TXT
  4
BIGFONT
  0
ENDTAB
  0
TABLE
  2
VIEW
 70
     0
  0
ENDTAB
  0
ENDSEC
  0
SECTION
  2
BLOCKS
  0
ENDSEC
  0
SECTION
  2
ENTITIES
  0
LINE
  8
1
 62
7
  6
DASHDOT
 10
253.000000
 20
69.500000
 11
253.000000
 21
179.500000
  0
LINE
  8
1
 62
7
  6
CONTINUOUS
 10
145.837667
 20
87.000000
 11
145.337667
 21
87.500000
  0
LINE
  8
1
 62
7
  6
CONTINUOUS
 10
163.337667
 20
87.500000
 11
162.837667
 21
87.000000
  0
LINE
  8
1
 62
7
  6
CONTINUOUS
 10
145.337667
 20
87.500000
 11
163.337667
 21
87.500000
  0
LINE
  8
1
 62
7
  6
CONTINUOUS
 10
145.837667
 20
87.000000
 11
145.837667
 21
84.000000
  0
LINE
  8
1
 62
7
  6
CONTINUOUS
 10
145.837667
 20
84.000000
 11
173.000000
 21
84.000000
  0
LINE
  8
1
 62
7
  6
CONTINUOUS
 10
146.837667
 20
84.000000
 11
146.837667
 21
83.750000
  0
LINE
  8
1
 62
7
  6
CONTINUOUS
 10
161.837667
 20
83.750000
 11
161.837667
 21
84.000000
  0
LINE
  8
1
 62
7
  6
CONTINUOUS
 10
145.837667
 20
83.750000
 11
173.000000
 21
83.750000
  0
LINE
  8
1
 62
7
  6
CONTINUOUS
 10
145.837667
 20
83.750000
 11
145.837667
 21
80.750000
  0
LINE
  8
1
 62
7
  6
CONTINUOUS
 10
145.837667
 20
80.750000
 11
173.000000
 21
80.750000
  0
LINE
  8
1
 62
7
  6
CONTINUOUS
 10
173.000000
 20
87.000000
 11
145.837667
 21
87.000000
  0
LINE
  8
1
 62
7
  6
CONTINUOUS
 10
145.837667
 20
80.750000
 11
145.837667
 21
79.750000
  0
LINE
  8
1
 62
7
  6
CONTINUOUS
 10
145.837667
 20
79.750000
 11
162.837667
 21
79.750000
  0
LINE
  8
1
 62
7
  6
CONTINUOUS
 10
162.837667
 20
79.750000
 11
162.837667
 21
80.750000
  0
LINE
  8
1
 62
7
  6
CONTINUOUS
 10
162.837667
 20
77.250000
 11
162.837667
 21
79.750000
  0
LINE
  8
1
 62
7
  6
CONTINUOUS
 10
162.337667
 20
76.750000
 11
162.837667
 21
77.250000
  0
LINE
  8
1
 62
7
  6
CONTINUOUS
 10
145.837667
 20
79.750000
 11
145.837667
 21
77.250000
  0
LINE
  8
1
 62
7
  6
CONTINUOUS
 10
146.337667
 20
76.750000
 11
162.337667
 21
76.750000
  0
LINE
  8
1
 62
7
  6
CONTINUOUS
 10
145.837667
 20
77.250000
 11
146.337667
 21
76.750000
  0
LINE
  8
1
 62
7
  6
CONTINUOUS
 10
145.837667
 20
77.250000
 11
162.837667
 21
77.250000
  0
LINE
  8
1
 62
7
  6
CONTINUOUS
 10
145.837667
 20
162.000000
 11
145.337667
 21
161.500000
  0
LINE
  8
1
 62
7
  6
CONTINUOUS
 10
163.337667
 20
161.500000
 11
162.837667
 21
162.000000
  0
LINE
  8
1
 62
7
  6
CONTINUOUS
 10
145.337667
 20
161.500000
 11
163.337667
 21
161.500000
  0
LINE
  8
1
 62
7
  6
CONTINUOUS
 10
145.837667
 20
162.000000
 11
145.837667
 21
165.000000
  0
LINE
  8
1
 62
7
  6
CONTINUOUS
 10
145.837667
 20
165.000000
 11
173.000000
 21
165.000000
  0
LINE
  8
1
 62
7
  6
CONTINUOUS
 10
146.837667
 20
165.000000
 11
146.837667
 21
165.250000
  0
LINE
  8
1
 62
7
  6
CONTINUOUS
 10
161.837667
 20
165.250000
 11
161.837667
 21
165.000000
  0
LINE
  8
1
 62
7
  6
CONTINUOUS
 10
145.837667
 20
165.250000
 11
173.000000
 21
165.250000
  0
LINE
  8
1
 62
7
  6
CONTINUOUS
 10
145.837667
 20
165.250000
 11
145.837667
 21
168.250000
  0
LINE
  8
1
 62
7
  6
CONTINUOUS
 10
145.837667
 20
168.250000
 11
173.000000
 21
168.250000
  0
LINE
  8
1
 62
7
  6
CONTINUOUS
 10
173.000000
 20
162.000000
 11
145.837667
 21
162.000000
  0
LINE
  8
1
 62
7
  6
CONTINUOUS
 10
145.837667
 20
168.250000
 11
145.837667
 21
169.250000
  0
LINE
  8
1
 62
7
  6
CONTINUOUS
 10
145.837667
 20
169.250000
 11
162.837667
 21
169.250000
  0
LINE
  8
1
 62
7
  6
CONTINUOUS
 10
162.837667
 20
169.250000
 11
162.837667
 21
168.250000
  0
LINE
  8
1
 62
7
  6
CONTINUOUS
 10
162.837667
 20
171.750000
 11
162.837667
 21
169.250000
  0
LINE
  8
1
 62
7
  6
CONTINUOUS
 10
162.337667
 20
172.250000
 11
162.837667
 21
171.750000
  0
LINE
  8
1
 62
7
  6
CONTINUOUS
 10
145.837667
 20
169.250000
 11
145.837667
 21
171.750000
  0
LINE
  8
1
 62
7
  6
CONTINUOUS
 10
146.337667
 20
172.250000
 11
162.337667
 21
172.250000
  0
LINE
  8
1
 62
7
  6
CONTINUOUS
 10
145.837667
 20
171.750000
 11
146.337667
 21
172.250000
  0
LINE
  8
1
 62
7
  6
CONTINUOUS
 10
145.837667
 20
171.750000
 11
162.837667
 21
171.750000
  0
LINE
  8
1
 62
7
  6
DASHDOT
 10
154.337667
 20
175.250000
 11
154.337667
 21
73.750000
  0
LINE
  8
1
 62
7
  6
CONTINUOUS
 10
163.337667
 20
106.500000
 11
173.000000
 21
106.500000
  0
LINE
  8
1
 62
7
  6
CONTINUOUS
 10
163.337667
 20
114.500000
 11
173.000000
 21
114.500000
  0
LINE
  8
1
 62
7
  6
CONTINUOUS
 10
163.337667
 20
142.500000
 11
173.000000
 21
142.500000
  0
LINE
  8
1
 62
7
  6
CONTINUOUS
 10
163.337667
 20
134.500000
 11
173.000000
 21
134.500000
  0
ARC
  8
1
 62
7
  6
CONTINUOUS
 10
163.375236
 20
106.908120
 40
0.409846
 50
-165.352470
 51
-95.259439
  0
ARC
  8
1
 62
7
  6
CONTINUOUS
 10
165.660299
 20
108.232541
 40
3.038136
 50
-169.359726
 51
-151.962815
  0
ARC
  8
1
 62
7
  6
CONTINUOUS
 10
171.906946
 20
109.782978
 40
9.470899
 50
-175.071242
 51
-167.118461
  0
ARC
  8
1
 62
7
  6
CONTINUOUS
 10
178.104083
 20
110.465500
 40
15.704454
 50
179.874129
 51
-174.532883
  0
ARC
  8
1
 62
7
  6
CONTINUOUS
 10
178.694586
 20
110.506956
 40
16.294920
 50
174.634294
 51
-179.975540
  0
ARC
  8
1
 62
7
  6
CONTINUOUS
 10
173.116107
 20
111.027562
 40
10.692203
 50
167.573269
 51
174.616433
  0
ARC
  8
1
 62
7
  6
CONTINUOUS
 10
166.471011
 20
112.482936
 40
3.889615
 50
153.877230
 51
167.445311
  0
ARC
  8
1
 62
7
  6
CONTINUOUS
 10
163.500497
 20
113.944207
 40
0.579154
 50
106.328988
 51
154.282921
  0
LINE
  8
1
 62
7
  6
CONTINUOUS
 10
163.337667
 20
106.500000
 11
163.337667
 21
87.500000
  0
ARC
  8
1
 62
7
  6
CONTINUOUS
 10
163.375236
 20
134.908120
 40
0.409846
 50
-165.352470
 51
-95.259439
  0
ARC
  8
1
 62
7
  6
CONTINUOUS
 10
165.660299
 20
136.232541
 40
3.038136
 50
-169.359726
 51
-151.962815
  0
ARC
  8
1
 62
7
  6
CONTINUOUS
 10
171.906946
 20
137.782978
 40
9.470899
 50
-175.071242
 51
-167.118461
  0
ARC
  8
1
 62
7
  6
CONTINUOUS
 10
178.104083
 20
138.465500
 40
15.704454
 50
179.874129
 51
-174.532883
  0
ARC
  8
1
 62
7
  6
CONTINUOUS
 10
178.694586
 20
138.506956
 40
16.294920
 50
174.634294
 51
-179.975540
  0
ARC
  8
1
 62
7
  6
CONTINUOUS
 10
173.116107
 20
139.027562
 40
10.692203
 50
167.573269
 51
174.616433
  0
ARC
  8
1
 62
7
  6
CONTINUOUS
 10
166.471011
 20
140.482936
 40
3.889615
 50
153.877230
 51
167.445311
  0
ARC
  8
1
 62
7
  6
CONTINUOUS
 10
163.500497
 20
141.944207
 40
0.579154
 50
106.328988
 51
154.282921
  0
LINE
  8
1
 62
7
  6
CONTINUOUS
 10
163.337667
 20
134.500000
 11
163.337667
 21
114.500000
  0
LINE
  8
1
 62
7
  6
CONTINUOUS
 10
163.337667
 20
161.500000
 11
163.337667
 21
142.500000
  0
LINE
  8
1
 62
7
  6
DASHDOT
 10
142.337667
 20
110.500000
 11
176.000000
 21
110.500000
  0
LINE
  8
1
 62
7
  6
DASHDOT
 10
142.337667
 20
138.500000
 11
176.000000
 21
138.500000
  0
ARC
  8
1
 62
7
  6
CONTINUOUS
 10
145.300098
 20
106.908120
 40
0.409846
 50
-84.740561
 51
-14.647530
  0
ARC
  8
1
 62
7
  6
CONTINUOUS
 10
143.015035
 20
108.232541
 40
3.038136
 50
-28.037185
 51
-10.640274
  0
ARC
  8
1
 62
7
  6
CONTINUOUS
 10
136.768388
 20
109.782978
 40
9.470899
 50
-12.881539
 51
-4.928758
  0
ARC
  8
1
 62
7
  6
CONTINUOUS
 10
130.571251
 20
110.465500
 40
15.704454
 50
-5.467117
 51
0.125871
  0
ARC
  8
1
 62
7
  6
CONTINUOUS
 10
129.980748
 20
110.506956
 40
16.294920
 50
-0.024460
 51
5.365706
  0
ARC
  8
1
 62
7
  6
CONTINUOUS
 10
135.559227
 20
111.027562
 40
10.692203
 50
5.383567
 51
12.426731
  0
ARC
  8
1
 62
7
  6
CONTINUOUS
 10
142.204323
 20
112.482936
 40
3.889615
 50
12.554689
 51
26.122770
  0
ARC
  8
1
 62
7
  6
CONTINUOUS
 10
145.174836
 20
113.944207
 40
0.579154
 50
25.717079
 51
73.671012
  0
LINE
  8
1
 62
7
  6
CONTINUOUS
 10
145.337667
 20
87.500000
 11
145.337667
 21
106.500000
  0
LINE
  8
1
 62
7
  6
CONTINUOUS
 10
145.337667
 20
142.500000
 11
145.337667
 21
161.500000
  0
LINE
  8
1
 62
7
  6
CONTINUOUS
 10
145.337667
 20
114.500000
 11
145.337667
 21
134.500000
  0
LINE
  8
1
 62
7
  6
CONTINUOUS
 10
145.337667
 20
107.000000
 11
145.337667
 21
114.000000
  0
LINE
  8
1
 62
7
  6
CONTINUOUS
 10
145.633508
 20
106.704159
 11
145.337667
 21
107.000000
  0
LINE
  8
1
 62
7
  6
CONTINUOUS
 10
145.337667
 20
114.000000
 11
145.633508
 21
114.295841
  0
LINE
  8
1
 62
7
  6
CONTINUOUS
 10
145.837667
 20
113.884337
 11
145.837667
 21
107.115663
  0
ARC
  8
1
 62
7
  6
CONTINUOUS
 10
145.300098
 20
134.908120
 40
0.409846
 50
-84.740561
 51
-14.647530
  0
ARC
  8
1
 62
7
  6
CONTINUOUS
 10
143.015035
 20
136.232541
 40
3.038136
 50
-28.037185
 51
-10.640274
  0
ARC
  8
1
 62
7
  6
CONTINUOUS
 10
136.768388
 20
137.782978
 40
9.470899
 50
-12.881539
 51
-4.928758
  0
ARC
  8
1
 62
7
  6
CONTINUOUS
 10
130.571251
 20
138.465500
 40
15.704454
 50
-5.467117
 51
0.125871
  0
ARC
  8
1
 62
7
  6
CONTINUOUS
 10
129.980748
 20
138.506956
 40
16.294920
 50
-0.024460
 51
5.365706
  0
ARC
  8
1
 62
7
  6
CONTINUOUS
 10
135.559227
 20
139.027562
 40
10.692203
 50
5.383567
 51
12.426731
  0
ARC
  8
1
 62
7
  6
CONTINUOUS
 10
142.204323
 20
140.482936
 40
3.889615
 50
12.554689
 51
26.122770
  0
ARC
  8
1
 62
7
  6
CONTINUOUS
 10
145.174836
 20
141.944207
 40
0.579154
 50
25.717079
 51
73.671012
  0
LINE
  8
1
 62
7
  6
CONTINUOUS
 10
145.337667
 20
135.000000
 11
145.337667
 21
142.000000
  0
LINE
  8
1
 62
7
  6
CONTINUOUS
 10
145.633508
 20
134.704159
 11
145.337667
 21
135.000000
  0
LINE
  8
1
 62
7
  6
CONTINUOUS
 10
145.337667
 20
142.000000
 11
145.633508
 21
142.295841
  0
LINE
  8
1
 62
7
  6
CONTINUOUS
 10
145.837667
 20
141.884337
 11
145.837667
 21
135.115663
  0
LINE
  8
1
 62
7
  6
CONTINUOUS
 10
360.162333
 20
87.000000
 11
360.662333
 21
87.500000
  0
LINE
  8
1
 62
7
  6
CONTINUOUS
 10
342.662333
 20
87.500000
 11
343.162333
 21
87.000000
  0
LINE
  8
1
 62
7
  6
CONTINUOUS
 10
360.662333
 20
87.500000
 11
342.662333
 21
87.500000
  0
LINE
  8
1
 62
7
  6
CONTINUOUS
 10
360.162333
 20
87.000000
 11
360.162333
 21
84.000000
  0
LINE
  8
1
 62
7
  6
CONTINUOUS
 10
360.162333
 20
84.000000
 11
333.000000
 21
84.000000
  0
LINE
  8
1
 62
7
  6
CONTINUOUS
 10
359.162333
 20
84.000000
 11
359.162333
 21
83.750000
  0
LINE
  8
1
 62
7
  6
CONTINUOUS
 10
344.162333
 20
83.750000
 11
344.162333
 21
84.000000
  0
LINE
  8
1
 62
7
  6
CONTINUOUS
 10
360.162333
 20
83.750000
 11
333.000000
 21
83.750000
  0
LINE
  8
1
 62
7
  6
CONTINUOUS
 10
360.162333
 20
83.750000
 11
360.162333
 21
80.750000
  0
LINE
  8
1
 62
7
  6
CONTINUOUS
 10
360.162333
 20
80.750000
 11
333.000000
 21
80.750000
  0
LINE
  8
1
 62
7
  6
CONTINUOUS
 10
333.000000
 20
87.000000
 11
360.162333
 21
87.000000
  0
LINE
  8
1
 62
7
  6
CONTINUOUS
 10
360.162333
 20
80.750000
 11
360.162333
 21
79.750000
  0
LINE
  8
1
 62
7
  6
CONTINUOUS
 10
360.162333
 20
79.750000
 11
343.162333
 21
79.750000
  0
LINE
  8
1
 62
7
  6
CONTINUOUS
 10
343.162333
 20
79.750000
 11
343.162333
 21
80.750000
  0
LINE
  8
1
 62
7
  6
CONTINUOUS
 10
343.162333
 20
77.250000
 11
343.162333
 21
79.750000
  0
LINE
  8
1
 62
7
  6
CONTINUOUS
 10
343.662333
 20
76.750000
 11
343.162333
 21
77.250000
  0
LINE
  8
1
 62
7
  6
CONTINUOUS
 10
360.162333
 20
79.750000
 11
360.162333
 21
77.250000
  0
LINE
  8
1
 62
7
  6
CONTINUOUS
 10
359.662333
 20
76.750000
 11
343.662333
 21
76.750000
  0
LINE
  8
1
 62
7
  6
CONTINUOUS
 10
360.162333
 20
77.250000
 11
359.662333
 21
76.750000
  0
LINE
  8
1
 62
7
  6
CONTINUOUS
 10
360.162333
 20
77.250000
 11
343.162333
 21
77.250000
  0
LINE
  8
1
 62
7
  6
CONTINUOUS
 10
360.162333
 20
162.000000
 11
360.662333
 21
161.500000
  0
LINE
  8
1
 62
7
  6
CONTINUOUS
 10
342.662333
 20
161.500000
 11
343.162333
 21
162.000000
  0
LINE
  8
1
 62
7
  6
CONTINUOUS
 10
360.662333
 20
161.500000
 11
342.662333
 21
161.500000
  0
LINE
  8
1
 62
7
  6
CONTINUOUS
 10
360.162333
 20
162.000000
 11
360.162333
 21
165.000000
  0
LINE
  8
1
 62
7
  6
CONTINUOUS
 10
360.162333
 20
165.000000
 11
333.000000
 21
165.000000
  0
LINE
  8
1
 62
7
  6
CONTINUOUS
 10
359.162333
 20
165.000000
 11
359.162333
 21
165.250000
  0
LINE
  8
1
 62
7
  6
CONTINUOUS
 10
344.162333
 20
165.250000
 11
344.162333
 21
165.000000
  0
LINE
  8
1
 62
7
  6
CONTINUOUS
 10
360.162333
 20
165.250000
 11
333.000000
 21
165.250000
  0
LINE
  8
1
 62
7
  6
CONTINUOUS
 10
360.162333
 20
165.250000
 11
360.162333
 21
168.250000
  0
LINE
  8
1
 62
7
  6
CONTINUOUS
 10
360.162333
 20
168.250000
 11
333.000000
 21
168.250000
  0
LINE
  8
1
 62
7
  6
CONTINUOUS
 10
333.000000
 20
162.000000
 11
360.162333
 21
162.000000
  0
LINE
  8
1
 62
7
  6
CONTINUOUS
 10
360.162333
 20
168.250000
 11
360.162333
 21
169.250000
  0
LINE
  8
1
 62
7
  6
CONTINUOUS
 10
360.162333
 20
169.250000
 11
343.162333
 21
169.250000
  0
LINE
  8
1
 62
7
  6
CONTINUOUS
 10
343.162333
 20
169.250000
 11
343.162333
 21
168.250000
  0
LINE
  8
1
 62
7
  6
CONTINUOUS
 10
343.162333
 20
171.750000
 11
343.162333
 21
169.250000
  0
LINE
  8
1
 62
7
  6
CONTINUOUS
 10
343.662333
 20
172.250000
 11
343.162333
 21
171.750000
  0
LINE
  8
1
 62
7
  6
CONTINUOUS
 10
360.162333
 20
169.250000
 11
360.162333
 21
171.750000
  0
LINE
  8
1
 62
7
  6
CONTINUOUS
 10
359.662333
 20
172.250000
 11
343.662333
 21
172.250000
  0
LINE
  8
1
 62
7
  6
CONTINUOUS
 10
360.162333
 20
171.750000
 11
359.662333
 21
172.250000
  0
LINE
  8
1
 62
7
  6
CONTINUOUS
 10
360.162333
 20
171.750000
 11
343.162333
 21
171.750000
  0
LINE
  8
1
 62
7
  6
CONTINUOUS
 10
342.662333
 20
96.500000
 11
333.000000
 21
96.500000
  0
LINE
  8
1
 62
7
  6
CONTINUOUS
 10
342.662333
 20
104.500000
 11
333.000000
 21
104.500000
  0
ARC
  8
1
 62
7
  6
CONTINUOUS
 10
342.624764
 20
96.908120
 40
0.409846
 50
-84.740561
 51
-14.647530
  0
ARC
  8
1
 62
7
  6
CONTINUOUS
 10
340.339701
 20
98.232541
 40
3.038136
 50
-28.037185
 51
-10.640274
  0
ARC
  8
1
 62
7
  6
CONTINUOUS
 10
334.093054
 20
99.782978
 40
9.470899
 50
-12.881539
 51
-4.928758
  0
ARC
  8
1
 62
7
  6
CONTINUOUS
 10
327.895917
 20
100.465500
 40
15.704454
 50
-5.467117
 51
0.125871
  0
ARC
  8
1
 62
7
  6
CONTINUOUS
 10
327.305414
 20
100.506956
 40
16.294920
 50
-0.024460
 51
5.365706
  0
ARC
  8
1
 62
7
  6
CONTINUOUS
 10
332.883893
 20
101.027562
 40
10.692203
 50
5.383567
 51
12.426731
  0
ARC
  8
1
 62
7
  6
CONTINUOUS
 10
339.528989
 20
102.482936
 40
3.889615
 50
12.554689
 51
26.122770
  0
ARC
  8
1
 62
7
  6
CONTINUOUS
 10
342.499503
 20
103.944207
 40
0.579154
 50
25.717079
 51
73.671012
  0
LINE
  8
1
 62
7
  6
CONTINUOUS
 10
342.662333
 20
96.500000
 11
342.662333
 21
87.500000
  0
LINE
  8
1
 62
7
  6
DASHDOT
 10
363.662333
 20
100.500000
 11
330.000000
 21
100.500000
  0
LINE
  8
1
 62
7
  6
CONTINUOUS
 10
360.662333
 20
87.500000
 11
360.662333
 21
96.500000
  0
LINE
  8
1
 62
7
  6
CONTINUOUS
 10
360.366492
 20
96.704159
 11
360.662333
 21
97.000000
  0
LINE
  8
1
 62
7
  6
CONTINUOUS
 10
342.662333
 20
152.500000
 11
333.000000
 21
152.500000
  0
LINE
  8
1
 62
7
  6
CONTINUOUS
 10
342.662333
 20
144.500000
 11
333.000000
 21
144.500000
  0
ARC
  8
1
 62
7
  6
CONTINUOUS
 10
342.624764
 20
144.908120
 40
0.409846
 50
-84.740561
 51
-14.647530
  0
ARC
  8
1
 62
7
  6
CONTINUOUS
 10
340.339701
 20
146.232541
 40
3.038136
 50
-28.037185
 51
-10.640274
  0
ARC
  8
1
 62
7
  6
CONTINUOUS
 10
334.093054
 20
147.782978
 40
9.470899
 50
-12.881539
 51
-4.928758
  0
ARC
  8
1
 62
7
  6
CONTINUOUS
 10
327.895917
 20
148.465500
 40
15.704454
 50
-5.467117
 51
0.125871
  0
ARC
  8
1
 62
7
  6
CONTINUOUS
 10
327.305414
 20
148.506956
 40
16.294920
 50
-0.024460
 51
5.365706
  0
ARC
  8
1
 62
7
  6
CONTINUOUS
 10
332.883893
 20
149.027562
 40
10.692203
 50
5.383567
 51
12.426731
  0
ARC
  8
1
 62
7
  6
CONTINUOUS
 10
339.528989
 20
150.482936
 40
3.889615
 50
12.554689
 51
26.122770
  0
ARC
  8
1
 62
7
  6
CONTINUOUS
 10
342.499503
 20
151.944207
 40
0.579154
 50
25.717079
 51
73.671012
  0
LINE
  8
1
 62
7
  6
CONTINUOUS
 10
342.662333
 20
161.500000
 11
342.662333
 21
152.500000
  0
LINE
  8
1
 62
7
  6
DASHDOT
 10
363.662333
 20
148.500000
 11
330.000000
 21
148.500000
  0
LINE
  8
1
 62
7
  6
CONTINUOUS
 10
360.662333
 20
152.500000
 11
360.662333
 21
161.500000
  0
ARC
  8
1
 62
7
  6
CONTINUOUS
 10
360.699902
 20
144.908120
 40
0.409846
 50
-165.352470
 51
-95.259439
  0
ARC
  8
1
 62
7
  6
CONTINUOUS
 10
362.984965
 20
146.232541
 40
3.038136
 50
-169.359726
 51
-151.962815
  0
ARC
  8
1
 62
7
  6
CONTINUOUS
 10
369.231612
 20
147.782978
 40
9.470899
 50
-175.071242
 51
-167.118461
  0
ARC
  8
1
 62
7
  6
CONTINUOUS
 10
375.428749
 20
148.465500
 40
15.704454
 50
179.874129
 51
-174.532883
  0
ARC
  8
1
 62
7
  6
CONTINUOUS
 10
376.019252
 20
148.506956
 40
16.294920
 50
174.634294
 51
-179.975540
  0
ARC
  8
1
 62
7
  6
CONTINUOUS
 10
370.440773
 20
149.027562
 40
10.692203
 50
167.573269
 51
174.616433
  0
ARC
  8
1
 62
7
  6
CONTINUOUS
 10
363.795677
 20
150.482936
 40
3.889615
 50
153.877230
 51
167.445311
  0
ARC
  8
1
 62
7
  6
CONTINUOUS
 10
360.825164
 20
151.944207
 40
0.579154
 50
106.328988
 51
154.282921
  0
LINE
  8
1
 62
7
  6
CONTINUOUS
 10
360.662333
 20
145.000000
 11
360.662333
 21
152.000000
  0
LINE
  8
1
 62
7
  6
CONTINUOUS
 10
360.366492
 20
144.704159
 11
360.662333
 21
145.000000
  0
LINE
  8
1
 62
7
  6
CONTINUOUS
 10
360.662333
 20
152.000000
 11
360.366492
 21
152.295841
  0
LINE
  8
1
 62
7
  6
CONTINUOUS
 10
360.162333
 20
151.884337
 11
360.162333
 21
145.115663
  0
LINE
  8
1
 62
7
  6
DASHDOT
 10
351.662333
 20
175.250000
 11
351.662333
 21
73.750000
  0
CIRCLE
  8
1
 62
7
  6
CONTINUOUS
 10
196.000000
 20
104.500000
 40
4.000000
  0
CIRCLE
  8
1
 62
7
  6
CONTINUOUS
 10
196.000000
 20
104.500000
 40
3.500000
  0
LINE
  8
1
 62
7
  6
CONTINUOUS
 10
195.100000
 20
103.000000
 11
194.300000
 21
104.500000
  0
LINE
  8
1
 62
7
  6
CONTINUOUS
 10
194.300000
 20
104.500000
 11
195.100000
 21
106.000000
  0
LINE
  8
1
 62
7
  6
CONTINUOUS
 10
195.100000
 20
106.000000
 11
196.900000
 21
106.000000
  0
LINE
  8
1
 62
7
  6
CONTINUOUS
 10
196.900000
 20
106.000000
 11
197.700000
 21
104.500000
  0
LINE
  8
1
 62
7
  6
CONTINUOUS
 10
197.700000
 20
104.500000
 11
196.900000
 21
103.000000
  0
LINE
  8
1
 62
7
  6
CONTINUOUS
 10
196.900000
 20
103.000000
 11
195.100000
 21
103.000000
  0
CIRCLE
  8
1
 62
7
  6
CONTINUOUS
 10
196.000000
 20
104.500000
 40
3.000000
  0
LINE
  8
1
 62
7
  6
DASHDOT
 10
191.000000
 20
104.500000
 11
201.000000
 21
104.500000
  0
LINE
  8
1
 62
7
  6
DASHDOT
 10
196.000000
 20
109.500000
 11
196.000000
 21
99.500000
  0
CIRCLE
  8
1
 62
7
  6
CONTINUOUS
 10
196.000000
 20
144.500000
 40
4.000000
  0
CIRCLE
  8
1
 62
7
  6
CONTINUOUS
 10
196.000000
 20
144.500000
 40
3.500000
  0
LINE
  8
1
 62
7
  6
CONTINUOUS
 10
195.100000
 20
146.000000
 11
194.300000
 21
144.500000
  0
LINE
  8
1
 62
7
  6
CONTINUOUS
 10
194.300000
 20
144.500000
 11
195.100000
 21
143.000000
  0
LINE
  8
1
 62
7
  6
CONTINUOUS
 10
195.100000
 20
143.000000
 11
196.900000
 21
143.000000
  0
LINE
  8
1
 62
7
  6
CONTINUOUS
 10
196.900000
 20
143.000000
 11
197.700000
 21
144.500000
  0
LINE
  8
1
 62
7
  6
CONTINUOUS
 10
197.700000
 20
144.500000
 11
196.900000
 21
146.000000
  0
LINE
  8
1
 62
7
  6
CONTINUOUS
 10
196.900000
 20
146.000000
 11
195.100000
 21
146.000000
  0
CIRCLE
  8
1
 62
7
  6
CONTINUOUS
 10
196.000000
 20
144.500000
 40
3.000000
  0
LINE
  8
1
 62
7
  6
DASHDOT
 10
191.000000
 20
144.500000
 11
201.000000
 21
144.500000
  0
LINE
  8
1
 62
7
  6
DASHDOT
 10
196.000000
 20
139.500000
 11
196.000000
 21
149.500000
  0
CIRCLE
  8
1
 62
7
  6
CONTINUOUS
 10
310.000000
 20
104.500000
 40
4.000000
  0
CIRCLE
  8
1
 62
7
  6
CONTINUOUS
 10
310.000000
 20
104.500000
 40
3.500000
  0
LINE
  8
1
 62
7
  6
CONTINUOUS
 10
310.900000
 20
103.000000
 11
311.700000
 21
104.500000
  0
LINE
  8
1
 62
7
  6
CONTINUOUS
 10
311.700000
 20
104.500000
 11
310.900000
 21
106.000000
  0
LINE
  8
1
 62
7
  6
CONTINUOUS
 10
310.900000
 20
106.000000
 11
309.100000
 21
106.000000
  0
LINE
  8
1
 62
7
  6
CONTINUOUS
 10
309.100000
 20
106.000000
 11
308.300000
 21
104.500000
  0
LINE
  8
1
 62
7
  6
CONTINUOUS
 10
308.300000
 20
104.500000
 11
309.100000
 21
103.000000
  0
LINE
  8
1
 62
7
  6
CONTINUOUS
 10
309.100000
 20
103.000000
 11
310.900000
 21
103.000000
  0
CIRCLE
  8
1
 62
7
  6
CONTINUOUS
 10
310.000000
 20
104.500000
 40
3.000000
  0
LINE
  8
1
 62
7
  6
DASHDOT
 10
315.000000
 20
104.500000
 11
305.000000
 21
104.500000
  0
LINE
  8
1
 62
7
  6
DASHDOT
 10
310.000000
 20
109.500000
 11
310.000000
 21
99.500000
  0
CIRCLE
  8
1
 62
7
  6
CONTINUOUS
 10
310.000000
 20
144.500000
 40
4.000000
  0
CIRCLE
  8
1
 62
7
  6
CONTINUOUS
 10
310.000000
 20
144.500000
 40
3.500000
  0
LINE
  8
1
 62
7
  6
CONTINUOUS
 10
310.900000
 20
146.000000
 11
311.700000
 21
144.500000
  0
LINE
  8
1
 62
7
  6
CONTINUOUS
 10
311.700000
 20
144.500000
 11
310.900000
 21
143.000000
  0
LINE
  8
1
 62
7
  6
CONTINUOUS
 10
310.900000
 20
143.000000
 11
309.100000
 21
143.000000
  0
LINE
  8
1
 62
7
  6
CONTINUOUS
 10
309.100000
 20
143.000000
 11
308.300000
 21
144.500000
  0
LINE
  8
1
 62
7
  6
CONTINUOUS
 10
308.300000
 20
144.500000
 11
309.100000
 21
146.000000
  0
LINE
  8
1
 62
7
  6
CONTINUOUS
 10
309.100000
 20
146.000000
 11
310.900000
 21
146.000000
  0
CIRCLE
  8
1
 62
7
  6
CONTINUOUS
 10
310.000000
 20
144.500000
 40
3.000000
  0
LINE
  8
1
 62
7
  6
DASHDOT
 10
315.000000
 20
144.500000
 11
305.000000
 21
144.500000
  0
LINE
  8
1
 62
7
  6
DASHDOT
 10
310.000000
 20
139.500000
 11
310.000000
 21
149.500000
  0
LINE
  8
1
 62
7
  6
CONTINUOUS
 10
332.000000
 20
74.500000
 11
333.000000
 21
75.500000
  0
LINE
  8
1
 62
7
  6
CONTINUOUS
 10
333.000000
 20
75.500000
 11
333.000000
 21
173.500000
  0
LINE
  8
1
 62
7
  6
CONTINUOUS
 10
332.000000
 20
174.500000
 11
333.000000
 21
173.500000
  0
LINE
  8
1
 62
7
  6
CONTINUOUS
 10
174.000000
 20
174.500000
 11
332.000000
 21
174.500000
  0
LINE
  8
1
 62
7
  6
CONTINUOUS
 10
173.000000
 20
173.500000
 11
174.000000
 21
174.500000
  0
LINE
  8
1
 62
7
  6
CONTINUOUS
 10
332.000000
 20
74.500000
 11
174.000000
 21
74.500000
  0
LINE
  8
1
 62
7
  6
CONTINUOUS
 10
173.000000
 20
75.500000
 11
173.000000
 21
173.500000
  0
LINE
  8
1
 62
7
  6
CONTINUOUS
 10
174.000000
 20
74.500000
 11
173.000000
 21
75.500000
  0
LINE
  8
1
 62
7
  6
DASHDOT
 10
414.837667
 20
124.500000
 11
140.337667
 21
124.500000
  0
LINE
  8
1
 62
7
  6
CONTINUOUS
 10
382.437667
 20
113.500000
 11
391.837667
 21
113.500000
  0
LINE
  8
1
 62
7
  6
CONTINUOUS
 10
381.837667
 20
114.100000
 11
382.437667
 21
113.500000
  0
LINE
  8
1
 62
7
  6
CONTINUOUS
 10
391.837667
 20
135.500000
 11
382.437667
 21
135.500000
  0
LINE
  8
1
 62
7
  6
CONTINUOUS
 10
381.837667
 20
134.900000
 11
381.837667
 21
114.100000
  0
LINE
  8
1
 62
7
  6
CONTINUOUS
 10
382.437667
 20
135.500000
 11
381.837667
 21
134.900000
  0
LINE
  8
1
 62
7
  6
CONTINUOUS
 10
382.437667
 20
135.500000
 11
382.437667
 21
113.500000
  0
LINE
  8
1
 62
7
  6
CONTINUOUS
 10
342.662333
 20
119.500000
 11
333.000000
 21
119.500000
  0
LINE
  8
1
 62
7
  6
CONTINUOUS
 10
381.837667
 20
119.500000
 11
360.662333
 21
119.500000
  0
LINE
  8
1
 62
7
  6
CONTINUOUS
 10
381.837667
 20
129.500000
 11
360.662333
 21
129.500000
  0
LINE
  8
1
 62
7
  6
CONTINUOUS
 10
342.662333
 20
129.500000
 11
333.000000
 21
129.500000
  0
LINE
  8
1
 62
7
  6
CONTINUOUS
 10
360.662333
 20
129.500000
 11
360.662333
 21
144.500000
  0
LINE
  8
1
 62
7
  6
CONTINUOUS
 10
342.662333
 20
144.500000
 11
342.662333
 21
129.500000
  0
LINE
  8
1
 62
7
  6
CONTINUOUS
 10
373.521481
 20
96.547010
 11
373.464913
 21
95.231791
  0
LINE
  8
1
 62
7
  6
CONTINUOUS
 10
370.115323
 20
93.140852
 11
371.430542
 21
93.197420
  0
LINE
  8
1
 62
7
  6
DASHDOT
 10
339.662333
 20
115.000000
 11
363.662333
 21
115.000000
  0
LINE
  8
1
 62
7
  6
CONTINUOUS
 10
391.837667
 20
95.500000
 11
392.837667
 21
94.500000
  0
LINE
  8
1
 62
7
  6
CONTINUOUS
 10
392.837667
 20
94.500000
 11
408.837667
 21
94.500000
  0
LINE
  8
1
 62
7
  6
CONTINUOUS
 10
409.837667
 20
95.500000
 11
408.837667
 21
94.500000
  0
LINE
  8
1
 62
7
  6
CONTINUOUS
 10
391.837667
 20
153.500000
 11
391.837667
 21
95.500000
  0
LINE
  8
1
 62
7
  6
CONTINUOUS
 10
392.837667
 20
154.500000
 11
391.837667
 21
153.500000
  0
LINE
  8
1
 62
7
  6
CONTINUOUS
 10
409.837667
 20
95.500000
 11
409.837667
 21
153.500000
  0
LINE
  8
1
 62
7
  6
CONTINUOUS
 10
408.837667
 20
154.500000
 11
392.837667
 21
154.500000
  0
LINE
  8
1
 62
7
  6
CONTINUOUS
 10
409.837667
 20
153.500000
 11
408.837667
 21
154.500000
  0
LINE
  8
1
 62
7
  6
CONTINUOUS
 10
408.837667
 20
94.500000
 11
408.837667
 21
154.500000
  0
LINE
  8
1
 62
7
  6
CONTINUOUS
 10
392.837667
 20
154.500000
 11
392.837667
 21
94.500000
  0
LINE
  8
1
 62
7
  6
CONTINUOUS
 10
407.837667
 20
94.500000
 11
407.837667
 21
154.500000
  0
LINE
  8
1
 62
7
  6
CONTINUOUS
 10
393.837667
 20
154.500000
 11
393.837667
 21
94.500000
  0
LINE
  8
1
 62
7
  6
CONTINUOUS
 10
397.104908
 20
143.634868
 11
393.837667
 21
143.634868
  0
LINE
  8
1
 62
7
  6
CONTINUOUS
 10
393.837667
 20
145.634868
 11
402.346288
 21
145.634868
  0
LINE
  8
1
 62
7
  6
CONTINUOUS
 10
407.587667
 20
147.634868
 11
393.837667
 21
147.634868
  0
LINE
  8
1
 62
7
  6
CONTINUOUS
 10
393.837667
 20
149.634868
 11
407.837667
 21
149.634868
  0
LINE
  8
1
 62
7
  6
CONTINUOUS
 10
407.837667
 20
151.634868
 11
393.837667
 21
151.634868
  0
LINE
  8
1
 62
7
  6
CONTINUOUS
 10
393.837667
 20
153.634868
 11
407.837667
 21
153.634868
  0
LINE
  8
1
 62
7
  6
CONTINUOUS
 10
405.837667
 20
154.500000
 11
405.837667
 21
146.967105
  0
LINE
  8
1
 62
7
  6
CONTINUOUS
 10
403.837667
 20
146.203947
 11
403.837667
 21
154.500000
  0
LINE
  8
1
 62
7
  6
CONTINUOUS
 10
401.837667
 20
154.500000
 11
401.837667
 21
145.440789
  0
LINE
  8
1
 62
7
  6
CONTINUOUS
 10
399.837667
 20
144.677632
 11
399.837667
 21
154.500000
  0
LINE
  8
1
 62
7
  6
CONTINUOUS
 10
397.837667
 20
154.500000
 11
397.837667
 21
143.914474
  0
LINE
  8
1
 62
7
  6
CONTINUOUS
 10
395.837667
 20
143.151316
 11
395.837667
 21
154.500000
  0
LINE
  8
1
 62
7
  6
CONTINUOUS
 10
404.570426
 20
105.365132
 11
407.837667
 21
105.365132
  0
LINE
  8
1
 62
7
  6
CONTINUOUS
 10
407.837667
 20
103.365132
 11
399.329046
 21
103.365132
  0
LINE
  8
1
 62
7
  6
CONTINUOUS
 10
394.087667
 20
101.365132
 11
407.837667
 21
101.365132
  0
LINE
  8
1
 62
7
  6
CONTINUOUS
 10
407.837667
 20
99.365132
 11
393.837667
 21
99.365132
  0
LINE
  8
1
 62
7
  6
CONTINUOUS
 10
393.837667
 20
97.365132
 11
407.837667
 21
97.365132
  0
LINE
  8
1
 62
7
  6
CONTINUOUS
 10
407.837667
 20
95.365132
 11
393.837667
 21
95.365132
  0
LINE
  8
1
 62
7
  6
CONTINUOUS
 10
395.837667
 20
94.500000
 11
395.837667
 21
102.032895
  0
LINE
  8
1
 62
7
  6
CONTINUOUS
 10
397.837667
 20
102.796053
 11
397.837667
 21
94.500000
  0
LINE
  8
1
 62
7
  6
CONTINUOUS
 10
399.837667
 20
94.500000
 11
399.837667
 21
103.559211
  0
LINE
  8
1
 62
7
  6
CONTINUOUS
 10
401.837667
 20
104.322368
 11
401.837667
 21
94.500000
  0
LINE
  8
1
 62
7
  6
CONTINUOUS
 10
403.837667
 20
94.500000
 11
403.837667
 21
105.085526
  0
LINE
  8
1
 62
7
  6
CONTINUOUS
 10
405.837667
 20
105.848684
 11
405.837667
 21
94.500000
  0
CIRCLE
  8
1
 62
7
  6
CONTINUOUS
 10
386.837667
 20
124.500000
 40
2.100000
  0
CIRCLE
  8
1
 62
7
  6
CONTINUOUS
 10
386.837667
 20
124.500000
 40
2.500000
  0
LINE
  8
1
 62
7
  6
DASHDOT
 10
386.837667
 20
121.000000
 11
386.837667
 21
128.000000
  0
CIRCLE
  8
1
 62
7
  6
CONTINUOUS
 10
386.837667
 20
124.500000
 40
1.900000
  0
LINE
  8
1
 62
7
  6
CONTINUOUS
 10
388.137667
 20
125.300000
 11
386.837667
 21
126.000000
  0
LINE
  8
1
 62
7
  6
CONTINUOUS
 10
386.837667
 20
126.000000
 11
385.537667
 21
125.300000
  0
LINE
  8
1
 62
7
  6
CONTINUOUS
 10
385.537667
 20
125.300000
 11
385.537667
 21
123.700000
  0
LINE
  8
1
 62
7
  6
CONTINUOUS
 10
385.537667
 20
123.700000
 11
386.837667
 21
123.000000
  0
LINE
  8
1
 62
7
  6
CONTINUOUS
 10
386.837667
 20
123.000000
 11
388.137667
 21
123.700000
  0
LINE
  8
1
 62
7
  6
CONTINUOUS
 10
388.137667
 20
123.700000
 11
388.137667
 21
125.300000
  0
LINE
  8
1
 62
7
  6
CONTINUOUS
 10
342.662333
 20
119.500000
 11
342.662333
 21
104.500000
  0
ARC
  8
1
 62
7
  6
CONTINUOUS
 10
342.629906
 20
120.182503
 40
0.683273
 50
-87.279775
 51
-26.221649
  0
ARC
  8
1
 62
7
  6
CONTINUOUS
 10
340.512074
 20
121.774240
 40
3.323112
 50
-34.738967
 51
-14.103799
  0
ARC
  8
1
 62
7
  6
CONTINUOUS
 10
334.710196
 20
123.638417
 40
9.412617
 50
-16.503956
 51
-6.416047
  0
ARC
  8
1
 62
7
  6
CONTINUOUS
 10
328.955807
 20
124.458547
 40
15.223582
 50
-7.063238
 51
0.156014
  0
ARC
  8
1
 62
7
  6
CONTINUOUS
 10
328.407466
 20
124.508361
 40
15.771869
 50
-0.030373
 51
6.937597
  0
ARC
  8
1
 62
7
  6
CONTINUOUS
 10
333.587056
 20
125.133894
 40
10.554646
 50
6.963003
 51
15.957000
  0
ARC
  8
1
 62
7
  6
CONTINUOUS
 10
339.758026
 20
126.883369
 40
4.140522
 50
16.156716
 51
32.686050
  0
ARC
  8
1
 62
7
  6
CONTINUOUS
 10
342.514755
 20
128.641859
 40
0.870739
 50
33.259358
 51
80.242066
  0
ARC
  8
1
 62
7
  6
CONTINUOUS
 10
360.694761
 20
120.182503
 40
0.683273
 50
-153.778351
 51
-92.720225
  0
ARC
  8
1
 62
7
  6
CONTINUOUS
 10
362.812592
 20
121.774240
 40
3.323112
 50
-165.896201
 51
-145.261033
  0
ARC
  8
1
 62
7
  6
CONTINUOUS
 10
368.614471
 20
123.638417
 40
9.412617
 50
-173.583953
 51
-163.496044
  0
ARC
  8
1
 62
7
  6
CONTINUOUS
 10
374.368859
 20
124.458547
 40
15.223582
 50
179.843986
 51
-172.936762
  0
ARC
  8
1
 62
7
  6
CONTINUOUS
 10
374.917200
 20
124.508361
 40
15.771869
 50
173.062403
 51
-179.969627
  0
ARC
  8
1
 62
7
  6
CONTINUOUS
 10
369.737610
 20
125.133894
 40
10.554646
 50
164.043000
 51
173.036997
  0
ARC
  8
1
 62
7
  6
CONTINUOUS
 10
363.566641
 20
126.883369
 40
4.140522
 50
147.313950
 51
163.843284
  0
ARC
  8
1
 62
7
  6
CONTINUOUS
 10
360.809911
 20
128.641859
 40
0.870739
 50
99.757934
 51
146.740642
  0
ARC
  8
1
 62
7
  6
CONTINUOUS
 10
351.662333
 20
115.000000
 40
10.000000
 50
154.158067
 51
-154.158067
  0
ARC
  8
1
 62
7
  6
CONTINUOUS
 10
351.662333
 20
115.000000
 40
10.000000
 50
-25.841933
 51
25.841933
  0
ARC
  8
1
 62
7
  6
CONTINUOUS
 10
373.277030
 20
96.575519
 40
0.244252
 50
-7.124680
 51
43.585439
  0
ARC
  8
1
 62
7
  6
CONTINUOUS
 10
372.405765
 20
96.611878
 40
1.115623
 50
-30.952184
 51
-3.425211
  0
ARC
  8
1
 62
7
  6
CONTINUOUS
 10
369.603962
 20
97.948206
 40
4.216077
 50
-37.950715
 51
-26.939903
  0
ARC
  8
1
 62
7
  6
CONTINUOUS
 10
366.613009
 20
100.125848
 40
7.914722
 50
-44.179703
 51
-37.065853
  0
ARC
  8
1
 62
7
  6
CONTINUOUS
 10
365.884465
 20
100.780387
 40
8.893440
 50
-50.427754
 51
-43.932806
  0
ARC
  8
1
 62
7
  6
CONTINUOUS
 10
367.610397
 20
98.690613
 40
6.183091
 50
-58.582360
 51
-50.419362
  0
ARC
  8
1
 62
7
  6
CONTINUOUS
 10
369.592812
 20
95.456714
 40
2.389941
 50
-73.842580
 51
-58.726968
  0
ARC
  8
1
 62
7
  6
CONTINUOUS
 10
370.141086
 20
93.565438
 40
0.420798
 50
-121.948361
 51
-73.885892
  0
ARC
  8
1
 62
7
  6
CONTINUOUS
 10
372.822062
 20
95.276293
 40
0.645314
 50
-29.077417
 51
-3.879736
  0
ARC
  8
1
 62
7
  6
CONTINUOUS
 10
371.361793
 20
95.936787
 40
2.246438
 50
-36.400718
 51
-25.697816
  0
ARC
  8
1
 62
7
  6
CONTINUOUS
 10
369.645052
 20
97.123278
 40
4.332787
 50
-42.365074
 51
-35.557367
  0
ARC
  8
1
 62
7
  6
CONTINUOUS
 10
368.826570
 20
97.835764
 40
5.417704
 50
-47.900429
 51
-42.099571
  0
ARC
  8
1
 62
7
  6
CONTINUOUS
 10
369.356340
 20
97.243227
 40
4.622886
 50
-54.228804
 51
-47.848756
  0
ARC
  8
1
 62
7
  6
CONTINUOUS
 10
370.544284
 20
95.601624
 40
2.596549
 50
-63.578912
 51
-54.322553
  0
ARC
  8
1
 62
7
  6
CONTINUOUS
 10
371.331431
 20
94.024880
 40
0.834253
 50
-83.235044
 51
-63.807804
  0
LINE
  8
1
 62
7
  6
CONTINUOUS
 10
360.662333
 20
109.535534
 11
373.453953
 21
96.743914
  0
LINE
  8
1
 62
7
  6
CONTINUOUS
 10
369.918419
 20
93.208381
 11
360.662333
 21
102.464466
  0
LINE
  8
1
 62
7
  6
CONTINUOUS
 10
360.662333
 20
104.500000
 11
360.662333
 21
119.500000
  0
ARC
  8
1
 62
7
  6
CONTINUOUS
 10
360.699902
 20
96.908120
 40
0.409846
 50
-165.352470
 51
-95.259439
  0
ARC
  8
1
 62
7
  6
CONTINUOUS
 10
362.984965
 20
98.232541
 40
3.038136
 50
-169.359726
 51
-151.962815
  0
ARC
  8
1
 62
7
  6
CONTINUOUS
 10
369.231612
 20
99.782978
 40
9.470899
 50
-175.071242
 51
-167.118461
  0
ARC
  8
1
 62
7
  6
CONTINUOUS
 10
375.428749
 20
100.465500
 40
15.704454
 50
179.874129
 51
-174.532883
  0
ARC
  8
1
 62
7
  6
CONTINUOUS
 10
376.019252
 20
100.506956
 40
16.294920
 50
174.634294
 51
-179.975540
  0
ARC
  8
1
 62
7
  6
CONTINUOUS
 10
370.440773
 20
101.027562
 40
10.692203
 50
167.573269
 51
174.616433
  0
ARC
  8
1
 62
7
  6
CONTINUOUS
 10
363.795677
 20
102.482936
 40
3.889615
 50
153.877230
 51
167.445311
  0
ARC
  8
1
 62
7
  6
CONTINUOUS
 10
360.825164
 20
103.944207
 40
0.579154
 50
106.328988
 51
154.282921
  0
LINE
  8
1
 62
7
  6
CONTINUOUS
 10
360.366492
 20
104.295841
 11
360.662333
 21
104.000000
  0
LINE
  8
1
 62
7
  6
CONTINUOUS
 10
360.662333
 20
97.000000
 11
360.662333
 21
104.000000
  0
LINE
  8
1
 62
7
  6
CONTINUOUS
 10
360.162333
 20
103.884337
 11
360.162333
 21
97.115663
  0
LINE
  8
1
 62
7
  6
DASHDOT
 10
358.847867
 20
107.814466
 11
374.071678
 21
92.590655
  0
CIRCLE
  8
1
 62
7
  6
CONTINUOUS
 10
351.662333
 20
115.000000
 40
6.000000
  0
CIRCLE
  8
1
 62
7
  6
CONTINUOUS
 10
351.662333
 20
115.000000
 40
5.500000
  0
CIRCLE
  8
1
 62
7
  6
CONTINUOUS
 10
351.662333
 20
115.000000
 40
2.500000
  0
CIRCLE
  8
1
 62
7
  6
CONTINUOUS
 10
351.662333
 20
115.000000
 40
3.000000
  0
CIRCLE
  8
1
 62
7
  6
CONTINUOUS
 10
351.662333
 20
100.500000
 40
2.000000
  0
CIRCLE
  8
1
 62
7
  6
CONTINUOUS
 10
351.662333
 20
100.500000
 40
1.650000
  0
CIRCLE
  8
1
 62
7
  6
CONTINUOUS
 10
351.662333
 20
90.500000
 40
2.000000
  0
CIRCLE
  8
1
 62
7
  6
CONTINUOUS
 10
351.662333
 20
90.500000
 40
1.650000
  0
LINE
  8
1
 62
7
  6
DASHDOT
 10
348.662333
 20
90.500000
 11
354.662333
 21
90.500000
  0
CIRCLE
  8
1
 62
7
  6
CONTINUOUS
 10
351.662333
 20
90.500000
 40
1.500000
  0
LINE
  8
1
 62
7
  6
CONTINUOUS
 10
352.662333
 20
91.100000
 11
351.662333
 21
91.700000
  0
LINE
  8
1
 62
7
  6
CONTINUOUS
 10
351.662333
 20
91.700000
 11
350.662333
 21
91.100000
  0
LINE
  8
1
 62
7
  6
CONTINUOUS
 10
350.662333
 20
91.100000
 11
350.662333
 21
89.900000
  0
LINE
  8
1
 62
7
  6
CONTINUOUS
 10
350.662333
 20
89.900000
 11
351.662333
 21
89.300000
  0
LINE
  8
1
 62
7
  6
CONTINUOUS
 10
351.662333
 20
89.300000
 11
352.662333
 21
89.900000
  0
LINE
  8
1
 62
7
  6
CONTINUOUS
 10
352.662333
 20
89.900000
 11
352.662333
 21
91.100000
  0
CIRCLE
  8
1
 62
7
  6
CONTINUOUS
 10
351.662333
 20
100.500000
 40
1.500000
  0
LINE
  8
1
 62
7
  6
CONTINUOUS
 10
352.662333
 20
101.100000
 11
351.662333
 21
101.700000
  0
LINE
  8
1
 62
7
  6
CONTINUOUS
 10
351.662333
 20
101.700000
 11
350.662333
 21
101.100000
  0
LINE
  8
1
 62
7
  6
CONTINUOUS
 10
350.662333
 20
101.100000
 11
350.662333
 21
99.900000
  0
LINE
  8
1
 62
7
  6
CONTINUOUS
 10
350.662333
 20
99.900000
 11
351.662333
 21
99.300000
  0
LINE
  8
1
 62
7
  6
CONTINUOUS
 10
351.662333
 20
99.300000
 11
352.662333
 21
99.900000
  0
LINE
  8
1
 62
7
  6
CONTINUOUS
 10
352.662333
 20
99.900000
 11
352.662333
 21
101.100000
  0
CIRCLE
  8
1
 62
7
  6
CONTINUOUS
 10
351.662333
 20
148.500000
 40
2.000000
  0
CIRCLE
  8
1
 62
7
  6
CONTINUOUS
 10
351.662333
 20
148.500000
 40
1.650000
  0
CIRCLE
  8
1
 62
7
  6
CONTINUOUS
 10
351.662333
 20
158.500000
 40
2.000000
  0
CIRCLE
  8
1
 62
7
  6
CONTINUOUS
 10
351.662333
 20
158.500000
 40
1.650000
  0
LINE
  8
1
 62
7
  6
DASHDOT
 10
348.662333
 20
158.500000
 11
354.662333
 21
158.500000
  0
CIRCLE
  8
1
 62
7
  6
CONTINUOUS
 10
351.662333
 20
158.500000
 40
1.500000
  0
LINE
  8
1
 62
7
  6
CONTINUOUS
 10
352.662333
 20
157.900000
 11
351.662333
 21
157.300000
  0
LINE
  8
1
 62
7
  6
CONTINUOUS
 10
351.662333
 20
157.300000
 11
350.662333
 21
157.900000
  0
LINE
  8
1
 62
7
  6
CONTINUOUS
 10
350.662333
 20
157.900000
 11
350.662333
 21
159.100000
  0
LINE
  8
1
 62
7
  6
CONTINUOUS
 10
350.662333
 20
159.100000
 11
351.662333
 21
159.700000
  0
LINE
  8
1
 62
7
  6
CONTINUOUS
 10
351.662333
 20
159.700000
 11
352.662333
 21
159.100000
  0
LINE
  8
1
 62
7
  6
CONTINUOUS
 10
352.662333
 20
159.100000
 11
352.662333
 21
157.900000
  0
CIRCLE
  8
1
 62
7
  6
CONTINUOUS
 10
351.662333
 20
148.500000
 40
1.500000
  0
LINE
  8
1
 62
7
  6
CONTINUOUS
 10
352.662333
 20
147.900000
 11
351.662333
 21
147.300000
  0
LINE
  8
1
 62
7
  6
CONTINUOUS
 10
351.662333
 20
147.300000
 11
350.662333
 21
147.900000
  0
LINE
  8
1
 62
7
  6
CONTINUOUS
 10
350.662333
 20
147.900000
 11
350.662333
 21
149.100000
  0
LINE
  8
1
 62
7
  6
CONTINUOUS
 10
350.662333
 20
149.100000
 11
351.662333
 21
149.700000
  0
LINE
  8
1
 62
7
  6
CONTINUOUS
 10
351.662333
 20
149.700000
 11
352.662333
 21
149.100000
  0
LINE
  8
1
 62
7
  6
CONTINUOUS
 10
352.662333
 20
149.100000
 11
352.662333
 21
147.900000
  0
CIRCLE
  8
1
 62
7
  6
CONTINUOUS
 10
154.337667
 20
90.500000
 40
2.000000
  0
CIRCLE
  8
1
 62
7
  6
CONTINUOUS
 10
154.337667
 20
90.500000
 40
1.650000
  0
LINE
  8
1
 62
7
  6
DASHDOT
 10
157.337667
 20
90.500000
 11
151.337667
 21
90.500000
  0
CIRCLE
  8
1
 62
7
  6
CONTINUOUS
 10
154.337667
 20
90.500000
 40
1.500000
  0
LINE
  8
1
 62
7
  6
CONTINUOUS
 10
153.337667
 20
91.100000
 11
154.337667
 21
91.700000
  0
LINE
  8
1
 62
7
  6
CONTINUOUS
 10
154.337667
 20
91.700000
 11
155.337667
 21
91.100000
  0
LINE
  8
1
 62
7
  6
CONTINUOUS
 10
155.337667
 20
91.100000
 11
155.337667
 21
89.900000
  0
LINE
  8
1
 62
7
  6
CONTINUOUS
 10
155.337667
 20
89.900000
 11
154.337667
 21
89.300000
  0
LINE
  8
1
 62
7
  6
CONTINUOUS
 10
154.337667
 20
89.300000
 11
153.337667
 21
89.900000
  0
LINE
  8
1
 62
7
  6
CONTINUOUS
 10
153.337667
 20
89.900000
 11
153.337667
 21
91.100000
  0
CIRCLE
  8
1
 62
7
  6
CONTINUOUS
 10
154.337667
 20
158.500000
 40
2.000000
  0
CIRCLE
  8
1
 62
7
  6
CONTINUOUS
 10
154.337667
 20
158.500000
 40
1.650000
  0
LINE
  8
1
 62
7
  6
DASHDOT
 10
157.337667
 20
158.500000
 11
151.337667
 21
158.500000
  0
CIRCLE
  8
1
 62
7
  6
CONTINUOUS
 10
154.337667
 20
158.500000
 40
1.500000
  0
LINE
  8
1
 62
7
  6
CONTINUOUS
 10
153.337667
 20
157.900000
 11
154.337667
 21
157.300000
  0
LINE
  8
1
 62
7
  6
CONTINUOUS
 10
154.337667
 20
157.300000
 11
155.337667
 21
157.900000
  0
LINE
  8
1
 62
7
  6
CONTINUOUS
 10
155.337667
 20
157.900000
 11
155.337667
 21
159.100000
  0
LINE
  8
1
 62
7
  6
CONTINUOUS
 10
155.337667
 20
159.100000
 11
154.337667
 21
159.700000
  0
LINE
  8
1
 62
7
  6
CONTINUOUS
 10
154.337667
 20
159.700000
 11
153.337667
 21
159.100000
  0
LINE
  8
1
 62
7
  6
CONTINUOUS
 10
153.337667
 20
159.100000
 11
153.337667
 21
157.900000
  0
CIRCLE
  8
1
 62
7
  6
CONTINUOUS
 10
154.337667
 20
138.500000
 40
2.000000
  0
CIRCLE
  8
1
 62
7
  6
CONTINUOUS
 10
154.337667
 20
138.500000
 40
1.650000
  0
CIRCLE
  8
1
 62
7
  6
CONTINUOUS
 10
154.337667
 20
138.500000
 40
1.500000
  0
LINE
  8
1
 62
7
  6
CONTINUOUS
 10
153.337667
 20
137.900000
 11
154.337667
 21
137.300000
  0
LINE
  8
1
 62
7
  6
CONTINUOUS
 10
154.337667
 20
137.300000
 11
155.337667
 21
137.900000
  0
LINE
  8
1
 62
7
  6
CONTINUOUS
 10
155.337667
 20
137.900000
 11
155.337667
 21
139.100000
  0
LINE
  8
1
 62
7
  6
CONTINUOUS
 10
155.337667
 20
139.100000
 11
154.337667
 21
139.700000
  0
LINE
  8
1
 62
7
  6
CONTINUOUS
 10
154.337667
 20
139.700000
 11
153.337667
 21
139.100000
  0
LINE
  8
1
 62
7
  6
CONTINUOUS
 10
153.337667
 20
139.100000
 11
153.337667
 21
137.900000
  0
CIRCLE
  8
1
 62
7
  6
CONTINUOUS
 10
154.337667
 20
110.500000
 40
2.000000
  0
CIRCLE
  8
1
 62
7
  6
CONTINUOUS
 10
154.337667
 20
110.500000
 40
1.650000
  0
CIRCLE
  8
1
 62
7
  6
CONTINUOUS
 10
154.337667
 20
110.500000
 40
1.500000
  0
LINE
  8
1
 62
7
  6
CONTINUOUS
 10
153.337667
 20
111.100000
 11
154.337667
 21
111.700000
  0
LINE
  8
1
 62
7
  6
CONTINUOUS
 10
154.337667
 20
111.700000
 11
155.337667
 21
111.100000
  0
LINE
  8
1
 62
7
  6
CONTINUOUS
 10
155.337667
 20
111.100000
 11
155.337667
 21
109.900000
  0
LINE
  8
1
 62
7
  6
CONTINUOUS
 10
155.337667
 20
109.900000
 11
154.337667
 21
109.300000
  0
LINE
  8
1
 62
7
  6
CONTINUOUS
 10
154.337667
 20
109.300000
 11
153.337667
 21
109.900000
  0
LINE
  8
1
 62
7
  6
CONTINUOUS
 10
153.337667
 20
109.900000
 11
153.337667
 21
111.100000
  0
CIRCLE
  8
1
 62
7
  6
CONTINUOUS
 10
228.000000
 20
149.500000
 40
2.250000
  0
LINE
  8
1
 62
7
  6
DASHDOT
 10
222.750000
 20
149.500000
 11
233.250000
 21
149.500000
  0
LINE
  8
1
 62
7
  6
DASHDOT
 10
228.000000
 20
144.250000
 11
228.000000
 21
154.750000
  0
CIRCLE
  8
1
 62
7
  6
CONTINUOUS
 10
228.000000
 20
99.500000
 40
2.250000
  0
LINE
  8
1
 62
7
  6
DASHDOT
 10
228.000000
 20
94.250000
 11
228.000000
 21
104.750000
  0
LINE
  8
1
 62
7
  6
DASHDOT
 10
233.250000
 20
99.500000
 11
222.750000
 21
99.500000
  0
CIRCLE
  8
1
 62
7
  6
CONTINUOUS
 10
278.000000
 20
99.500000
 40
2.250000
  0
LINE
  8
1
 62
7
  6
DASHDOT
 10
283.250000
 20
99.500000
 11
272.750000
 21
99.500000
  0
LINE
  8
1
 62
7
  6
DASHDOT
 10
278.000000
 20
104.750000
 11
278.000000
 21
94.250000
  0
CIRCLE
  8
1
 62
7
  6
CONTINUOUS
 10
278.000000
 20
149.500000
 40
2.250000
  0
LINE
  8
1
 62
7
  6
DASHDOT
 10
278.000000
 20
154.750000
 11
278.000000
 21
144.250000
  0
LINE
  8
1
 62
7
  6
DASHDOT
 10
272.750000
 20
149.500000
 11
283.250000
 21
149.500000
  0
CIRCLE
  8
1
 62
7
  6
CONTINUOUS
 10
183.000000
 20
124.500000
 40
3.500000
  0
LINE
  8
1
 62
7
  6
DASHDOT
 10
183.000000
 20
118.000000
 11
183.000000
 21
131.000000
  0
CIRCLE
  8
1
 62
7
  6
CONTINUOUS
 10
323.000000
 20
124.500000
 40
3.500000
  0
LINE
  8
1
 62
7
  6
DASHDOT
 10
323.000000
 20
118.000000
 11
323.000000
 21
131.000000
  0
CIRCLE
  8
1
 62
7
  6
CONTINUOUS
 10
253.000000
 20
164.500000
 40
3.500000
  0
LINE
  8
1
 62
7
  6
DASHDOT
 10
259.500000
 20
164.500000
 11
246.500000
 21
164.500000
  0
CIRCLE
  8
1
 62
7
  6
CONTINUOUS
 10
253.000000
 20
84.500000
 40
3.500000
  0
LINE
  8
1
 62
7
  6
DASHDOT
 10
259.500000
 20
84.500000
 11
246.500000
 21
84.500000
  0
CIRCLE
  8
1
 62
7
  6
CONTINUOUS
 10
183.000000
 20
164.500000
 40
2.500000
  0
CIRCLE
  8
1
 62
7
  6
CONTINUOUS
 10
183.000000
 20
164.500000
 40
3.000000
  0
LINE
  8
1
 62
7
  6
DASHDOT
 10
177.000000
 20
164.500000
 11
189.000000
 21
164.500000
  0
LINE
  8
1
 62
7
  6
DASHDOT
 10
183.000000
 20
158.500000
 11
183.000000
 21
170.500000
  0
CIRCLE
  8
1
 62
7
  6
CONTINUOUS
 10
183.000000
 20
84.500000
 40
2.500000
  0
CIRCLE
  8
1
 62
7
  6
CONTINUOUS
 10
183.000000
 20
84.500000
 40
3.000000
  0
LINE
  8
1
 62
7
  6
DASHDOT
 10
177.000000
 20
84.500000
 11
189.000000
 21
84.500000
  0
LINE
  8
1
 62
7
  6
DASHDOT
 10
183.000000
 20
90.500000
 11
183.000000
 21
78.500000
  0
CIRCLE
  8
1
 62
7
  6
CONTINUOUS
 10
323.000000
 20
164.500000
 40
2.500000
  0
CIRCLE
  8
1
 62
7
  6
CONTINUOUS
 10
323.000000
 20
164.500000
 40
3.000000
  0
LINE
  8
1
 62
7
  6
DASHDOT
 10
329.000000
 20
164.500000
 11
317.000000
 21
164.500000
  0
LINE
  8
1
 62
7
  6
DASHDOT
 10
323.000000
 20
158.500000
 11
323.000000
 21
170.500000
  0
CIRCLE
  8
1
 62
7
  6
CONTINUOUS
 10
323.000000
 20
84.500000
 40
2.500000
  0
CIRCLE
  8
1
 62
7
  6
CONTINUOUS
 10
323.000000
 20
84.500000
 40
3.000000
  0
LINE
  8
1
 62
7
  6
DASHDOT
 10
329.000000
 20
84.500000
 11
317.000000
 21
84.500000
  0
LINE
  8
1
 62
7
  6
DASHDOT
 10
323.000000
 20
90.500000
 11
323.000000
 21
78.500000
  0
LINE
  8
1
 62
7
  6
DASHDOT
 10
184.000000
 20
307.500000
 11
208.000000
 21
307.500000
  0
LINE
  8
1
 62
7
  6
DASHDOT
 10
196.000000
 20
295.500000
 11
196.000000
 21
319.500000
  0
CIRCLE
  8
1
 62
7
  6
CONTINUOUS
 10
196.000000
 20
307.500000
 40
8.500000
  0
CIRCLE
  8
1
 62
7
  6
CONTINUOUS
 10
198.750000
 20
312.263140
 40
1.050000
  0
CIRCLE
  8
1
 62
7
  6
CONTINUOUS
 10
193.250000
 20
302.736860
 40
1.050000
  0
CIRCLE
  8
1
 62
7
  6
CONTINUOUS
 10
196.000000
 20
307.500000
 40
8.000000
  0
LINE
  8
1
 62
7
  6
DASHDOT
 10
208.000000
 20
268.500000
 11
184.000000
 21
268.500000
  0
LINE
  8
1
 62
7
  6
DASHDOT
 10
196.000000
 20
280.500000
 11
196.000000
 21
256.500000
  0
CIRCLE
  8
1
 62
7
  6
CONTINUOUS
 10
196.000000
 20
268.500000
 40
8.500000
  0
CIRCLE
  8
1
 62
7
  6
CONTINUOUS
 10
193.250000
 20
263.736860
 40
1.050000
  0
CIRCLE
  8
1
 62
7
  6
CONTINUOUS
 10
198.750000
 20
273.263140
 40
1.050000
  0
CIRCLE
  8
1
 62
7
  6
CONTINUOUS
 10
196.000000
 20
268.500000
 40
8.000000
  0
CIRCLE
  8
1
 62
7
  6
CONTINUOUS
 10
154.337667
 20
288.000000
 40
8.500000
  0
CIRCLE
  8
1
 62
7
  6
CONTINUOUS
 10
154.337667
 20
288.000000
 40
8.000000
  0
LINE
  8
1
 62
7
  6
DASHDOT
 10
154.337667
 20
277.000000
 11
154.337667
 21
299.000000
  0
CIRCLE
  8
1
 62
7
  6
CONTINUOUS
 10
151.587667
 20
283.236860
 40
1.050000
  0
CIRCLE
  8
1
 62
7
  6
CONTINUOUS
 10
157.087667
 20
292.763140
 40
1.050000
  0
LINE
  8
1
 62
7
  6
CONTINUOUS
 10
150.734406
 20
295.698475
 11
192.396739
 21
315.198475
  0
LINE
  8
1
 62
7
  6
CONTINUOUS
 10
199.603261
 20
299.801525
 11
157.940928
 21
280.301525
  0
LINE
  8
1
 62
7
  6
CONTINUOUS
 10
192.396739
 20
260.801525
 11
150.734406
 21
280.301525
  0
CIRCLE
  8
1
 62
7
  6
CONTINUOUS
 10
237.662333
 20
288.000000
 40
8.500000
  0
CIRCLE
  8
1
 62
7
  6
CONTINUOUS
 10
237.662333
 20
288.000000
 40
8.000000
  0
LINE
  8
1
 62
7
  6
DASHDOT
 10
237.662333
 20
277.000000
 11
237.662333
 21
299.000000
  0
CIRCLE
  8
1
 62
7
  6
CONTINUOUS
 10
234.912333
 20
283.236860
 40
1.050000
  0
CIRCLE
  8
1
 62
7
  6
CONTINUOUS
 10
240.412333
 20
292.763140
 40
1.050000
  0
LINE
  8
1
 62
7
  6
CONTINUOUS
 10
199.603261
 20
315.198475
 11
241.265594
 21
295.698475
  0
LINE
  8
1
 62
7
  6
CONTINUOUS
 10
234.059072
 20
295.698475
 11
192.396739
 21
276.198475
  0
LINE
  8
1
 62
7
  6
CONTINUOUS
 10
199.603261
 20
260.801525
 11
241.265594
 21
280.301525
  0
LINE
  8
1
 62
7
  6
CONTINUOUS
 10
217.611051
 20
288.000000
 11
196.000000
 21
298.115024
  0
LINE
  8
1
 62
7
  6
CONTINUOUS
 10
174.388949
 20
288.000000
 11
196.000000
 21
277.884976
  0
ARC
  8
1
 62
7
  6
CONTINUOUS
 10
154.337667
 20
288.000000
 40
9.000000
 50
95.893746
 51
-95.893746
  0
ARC
  8
1
 62
7
  6
CONTINUOUS
 10
196.000000
 20
268.500000
 40
10.000000
 50
-146.870213
 51
-115.841933
  0
ARC
  8
1
 62
7
  6
CONTINUOUS
 10
196.000000
 20
268.500000
 40
10.000000
 50
83.293551
 51
96.706449
  0
ARC
  8
1
 62
7
  6
CONTINUOUS
 10
196.000000
 20
268.500000
 40
10.000000
 50
-64.158067
 51
-33.129787
  0
ARC
  8
1
 62
7
  6
CONTINUOUS
 10
237.662333
 20
288.000000
 40
9.000000
 50
-84.106254
 51
84.106254
  0
ARC
  8
1
 62
7
  6
CONTINUOUS
 10
196.000000
 20
307.500000
 40
10.000000
 50
115.841933
 51
146.870213
  0
ARC
  8
1
 62
7
  6
CONTINUOUS
 10
196.000000
 20
307.500000
 40
10.000000
 50
33.129787
 51
64.158067
  0
ARC
  8
1
 62
7
  6
CONTINUOUS
 10
196.000000
 20
307.500000
 40
10.000000
 50
-96.706449
 51
-83.293551
  0
LINE
  8
1
 62
7
  6
DASHDOT
 10
298.000000
 20
307.500000
 11
322.000000
 21
307.500000
  0
LINE
  8
1
 62
7
  6
DASHDOT
 10
310.000000
 20
295.500000
 11
310.000000
 21
319.500000
  0
CIRCLE
  8
1
 62
7
  6
CONTINUOUS
 10
310.000000
 20
307.500000
 40
8.500000
  0
CIRCLE
  8
1
 62
7
  6
CONTINUOUS
 10
312.750000
 20
312.263140
 40
1.050000
  0
CIRCLE
  8
1
 62
7
  6
CONTINUOUS
 10
307.250000
 20
302.736860
 40
1.050000
  0
CIRCLE
  8
1
 62
7
  6
CONTINUOUS
 10
310.000000
 20
307.500000
 40
8.000000
  0
LINE
  8
1
 62
7
  6
DASHDOT
 10
322.000000
 20
268.500000
 11
298.000000
 21
268.500000
  0
LINE
  8
1
 62
7
  6
DASHDOT
 10
310.000000
 20
280.500000
 11
310.000000
 21
256.500000
  0
CIRCLE
  8
1
 62
7
  6
CONTINUOUS
 10
310.000000
 20
268.500000
 40
8.500000
  0
CIRCLE
  8
1
 62
7
  6
CONTINUOUS
 10
307.250000
 20
263.736860
 40
1.050000
  0
CIRCLE
  8
1
 62
7
  6
CONTINUOUS
 10
312.750000
 20
273.263140
 40
1.050000
  0
CIRCLE
  8
1
 62
7
  6
CONTINUOUS
 10
310.000000
 20
268.500000
 40
8.000000
  0
CIRCLE
  8
1
 62
7
  6
CONTINUOUS
 10
268.337667
 20
288.000000
 40
8.500000
  0
CIRCLE
  8
1
 62
7
  6
CONTINUOUS
 10
268.337667
 20
288.000000
 40
8.000000
  0
LINE
  8
1
 62
7
  6
DASHDOT
 10
268.337667
 20
277.000000
 11
268.337667
 21
299.000000
  0
CIRCLE
  8
1
 62
7
  6
CONTINUOUS
 10
265.587667
 20
283.236860
 40
1.050000
  0
CIRCLE
  8
1
 62
7
  6
CONTINUOUS
 10
271.087667
 20
292.763140
 40
1.050000
  0
LINE
  8
1
 62
7
  6
CONTINUOUS
 10
264.734406
 20
295.698475
 11
306.396739
 21
315.198475
  0
LINE
  8
1
 62
7
  6
CONTINUOUS
 10
313.603261
 20
299.801525
 11
271.940928
 21
280.301525
  0
LINE
  8
1
 62
7
  6
CONTINUOUS
 10
306.396739
 20
260.801525
 11
264.734406
 21
280.301525
  0
CIRCLE
  8
1
 62
7
  6
CONTINUOUS
 10
351.662333
 20
288.000000
 40
8.500000
  0
CIRCLE
  8
1
 62
7
  6
CONTINUOUS
 10
351.662333
 20
288.000000
 40
8.000000
  0
CIRCLE
  8
1
 62
7
  6
CONTINUOUS
 10
348.912333
 20
283.236860
 40
1.050000
  0
CIRCLE
  8
1
 62
7
  6
CONTINUOUS
 10
354.412333
 20
292.763140
 40
1.050000
  0
LINE
  8
1
 62
7
  6
CONTINUOUS
 10
313.603261
 20
315.198475
 11
355.265594
 21
295.698475
  0
LINE
  8
1
 62
7
  6
CONTINUOUS
 10
348.059072
 20
295.698475
 11
306.396739
 21
276.198475
  0
LINE
  8
1
 62
7
  6
CONTINUOUS
 10
313.603261
 20
260.801525
 11
355.265594
 21
280.301525
  0
LINE
  8
1
 62
7
  6
CONTINUOUS
 10
331.611051
 20
288.000000
 11
310.000000
 21
298.115024
  0
LINE
  8
1
 62
7
  6
CONTINUOUS
 10
288.388949
 20
288.000000
 11
310.000000
 21
277.884976
  0
ARC
  8
1
 62
7
  6
CONTINUOUS
 10
268.337667
 20
288.000000
 40
9.000000
 50
95.893746
 51
-95.893746
  0
ARC
  8
1
 62
7
  6
CONTINUOUS
 10
310.000000
 20
268.500000
 40
10.000000
 50
-146.870213
 51
-115.841933
  0
ARC
  8
1
 62
7
  6
CONTINUOUS
 10
310.000000
 20
268.500000
 40
10.000000
 50
83.293551
 51
96.706449
  0
ARC
  8
1
 62
7
  6
CONTINUOUS
 10
310.000000
 20
268.500000
 40
10.000000
 50
-64.158067
 51
-33.129787
  0
ARC
  8
1
 62
7
  6
CONTINUOUS
 10
351.662333
 20
288.000000
 40
9.000000
 50
-84.106254
 51
84.106254
  0
ARC
  8
1
 62
7
  6
CONTINUOUS
 10
310.000000
 20
307.500000
 40
10.000000
 50
115.841933
 51
146.870213
  0
ARC
  8
1
 62
7
  6
CONTINUOUS
 10
310.000000
 20
307.500000
 40
10.000000
 50
33.129787
 51
64.158067
  0
ARC
  8
1
 62
7
  6
CONTINUOUS
 10
310.000000
 20
307.500000
 40
10.000000
 50
-96.706449
 51
-83.293551
  0
LINE
  8
1
 62
7
  6
CONTINUOUS
 10
247.662333
 20
280.000000
 11
246.662333
 21
280.000000
  0
LINE
  8
1
 62
7
  6
CONTINUOUS
 10
246.662333
 20
296.000000
 11
247.662333
 21
296.000000
  0
LINE
  8
1
 62
7
  6
CONTINUOUS
 10
246.662333
 20
295.000000
 11
243.319187
 21
295.000000
  0
LINE
  8
1
 62
7
  6
CONTINUOUS
 10
246.662333
 20
281.000000
 11
243.319187
 21
281.000000
  0
LINE
  8
1
 62
7
  6
CONTINUOUS
 10
258.337667
 20
297.000000
 11
256.837667
 21
297.000000
  0
LINE
  8
1
 62
7
  6
CONTINUOUS
 10
256.837667
 20
279.000000
 11
258.337667
 21
279.000000
  0
ARC
  8
1
 62
7
  6
CONTINUOUS
 10
257.587667
 20
295.000000
 40
1.500000
 50
120.000000
 51
134.427004
  0
ARC
  8
1
 62
7
  6
CONTINUOUS
 10
257.587667
 20
295.000000
 40
1.500000
 50
45.572996
 51
60.000000
  0
ARC
  8
1
 62
7
  6
CONTINUOUS
 10
257.587667
 20
292.949747
 40
1.500000
 50
120.000000
 51
134.427004
  0
ARC
  8
1
 62
7
  6
CONTINUOUS
 10
257.587667
 20
292.949747
 40
1.500000
 50
45.572996
 51
60.000000
  0
ARC
  8
1
 62
7
  6
CONTINUOUS
 10
257.587667
 20
281.000000
 40
1.500000
 50
-134.427004
 51
-120.000000
  0
ARC
  8
1
 62
7
  6
CONTINUOUS
 10
257.587667
 20
281.000000
 40
1.500000
 50
-60.000000
 51
-45.572996
  0
ARC
  8
1
 62
7
  6
CONTINUOUS
 10
257.587667
 20
283.050253
 40
1.500000
 50
-134.427004
 51
-120.000000
  0
ARC
  8
1
 62
7
  6
CONTINUOUS
 10
257.587667
 20
283.050253
 40
1.500000
 50
-60.000000
 51
-45.572996
  0
LINE
  8
1
 62
7
  6
CONTINUOUS
 10
260.137667
 20
297.000000
 11
258.637667
 21
297.000000
  0
ARC
  8
1
 62
7
  6
CONTINUOUS
 10
260.137667
 20
296.800000
 40
0.200000
 50
0.000000
 51
90.000000
  0
LINE
  8
1
 62
7
  6
CONTINUOUS
 10
256.537667
 20
297.000000
 11
255.037667
 21
297.000000
  0
ARC
  8
1
 62
7
  6
CONTINUOUS
 10
255.037667
 20
296.800000
 40
0.200000
 50
90.000000
 51
180.000000
  0
LINE
  8
1
 62
7
  6
CONTINUOUS
 10
255.037667
 20
279.000000
 11
256.537667
 21
279.000000
  0
ARC
  8
1
 62
7
  6
CONTINUOUS
 10
255.037667
 20
279.200000
 40
0.200000
 50
180.000000
 51
-90.000000
  0
LINE
  8
1
 62
7
  6
CONTINUOUS
 10
258.637667
 20
279.000000
 11
260.137667
 21
279.000000
  0
ARC
  8
1
 62
7
  6
CONTINUOUS
 10
260.137667
 20
279.200000
 40
0.200000
 50
-90.000000
 51
0.000000
  0
LINE
  8
1
 62
7
  6
CONTINUOUS
 10
260.337667
 20
283.876894
 11
260.337667
 21
279.200000
  0
LINE
  8
1
 62
7
  6
CONTINUOUS
 10
260.337667
 20
296.800000
 11
260.337667
 21
292.123106
  0
LINE
  8
1
 62
7
  6
CONTINUOUS
 10
254.637667
 20
297.000000
 11
254.837667
 21
296.800000
  0
LINE
  8
1
 62
7
  6
CONTINUOUS
 10
254.637667
 20
297.000000
 11
249.037667
 21
297.000000
  0
LINE
  8
1
 62
7
  6
CONTINUOUS
 10
248.837667
 20
296.800000
 11
249.037667
 21
297.000000
  0
LINE
  8
1
 62
7
  6
CONTINUOUS
 10
249.037667
 20
279.000000
 11
248.837667
 21
279.200000
  0
LINE
  8
1
 62
7
  6
CONTINUOUS
 10
249.037667
 20
279.000000
 11
254.637667
 21
279.000000
  0
LINE
  8
1
 62
7
  6
CONTINUOUS
 10
254.837667
 20
279.200000
 11
254.637667
 21
279.000000
  0
LINE
  8
1
 62
7
  6
CONTINUOUS
 10
248.837667
 20
293.000000
 11
247.662333
 21
293.000000
  0
LINE
  8
1
 62
7
  6
CONTINUOUS
 10
247.662333
 20
292.500000
 11
248.837667
 21
292.500000
  0
LINE
  8
1
 62
7
  6
CONTINUOUS
 10
248.837667
 20
283.000000
 11
247.662333
 21
283.000000
  0
LINE
  8
1
 62
7
  6
CONTINUOUS
 10
247.662333
 20
283.500000
 11
248.837667
 21
283.500000
  0
LINE
  8
1
 62
7
  6
CONTINUOUS
 10
296.935069
 20
292.000000
 11
323.064931
 21
292.000000
  0
LINE
  8
1
 62
7
  6
CONTINUOUS
 10
245.724591
 20
292.000000
 11
260.275409
 21
292.000000
  0
LINE
  8
1
 62
7
  6
CONTINUOUS
 10
182.935069
 20
292.000000
 11
209.064931
 21
292.000000
  0
LINE
  8
1
 62
7
  6
CONTINUOUS
 10
245.724591
 20
284.000000
 11
260.275409
 21
284.000000
  0
LINE
  8
1
 62
7
  6
CONTINUOUS
 10
246.662333
 20
292.000000
 11
246.662333
 21
296.000000
  0
LINE
  8
1
 62
7
  6
CONTINUOUS
 10
246.662333
 20
280.000000
 11
246.662333
 21
284.000000
  0
LINE
  8
1
 62
7
  6
CONTINUOUS
 10
247.662333
 20
284.000000
 11
247.662333
 21
280.000000
  0
LINE
  8
1
 62
7
  6
CONTINUOUS
 10
247.662333
 20
296.000000
 11
247.662333
 21
292.000000
  0
LINE
  8
1
 62
7
  6
CONTINUOUS
 10
248.837667
 20
284.000000
 11
248.837667
 21
279.200000
  0
LINE
  8
1
 62
7
  6
CONTINUOUS
 10
248.837667
 20
296.800000
 11
248.837667
 21
292.000000
  0
LINE
  8
1
 62
7
  6
CONTINUOUS
 10
249.037667
 20
292.000000
 11
249.037667
 21
297.000000
  0
LINE
  8
1
 62
7
  6
CONTINUOUS
 10
249.037667
 20
279.000000
 11
249.037667
 21
284.000000
  0
LINE
  8
1
 62
7
  6
CONTINUOUS
 10
254.637667
 20
284.000000
 11
254.637667
 21
279.000000
  0
LINE
  8
1
 62
7
  6
CONTINUOUS
 10
254.637667
 20
297.000000
 11
254.637667
 21
292.000000
  0
LINE
  8
1
 62
7
  6
CONTINUOUS
 10
254.837667
 20
284.000000
 11
254.837667
 21
279.200000
  0
LINE
  8
1
 62
7
  6
CONTINUOUS
 10
254.837667
 20
296.800000
 11
254.837667
 21
292.000000
  0
LINE
  8
1
 62
7
  6
CONTINUOUS
 10
256.537667
 20
292.000000
 11
256.537667
 21
297.000000
  0
LINE
  8
1
 62
7
  6
CONTINUOUS
 10
256.537667
 20
279.000000
 11
256.537667
 21
284.000000
  0
LINE
  8
1
 62
7
  6
CONTINUOUS
 10
258.637667
 20
284.000000
 11
258.637667
 21
279.000000
  0
LINE
  8
1
 62
7
  6
CONTINUOUS
 10
258.637667
 20
297.000000
 11
258.637667
 21
292.000000
  0
LINE
  8
1
 62
7
  6
CONTINUOUS
 10
256.837667
 20
284.000000
 11
256.837667
 21
279.000000
  0
LINE
  8
1
 62
7
  6
CONTINUOUS
 10
256.837667
 20
297.000000
 11
256.837667
 21
292.000000
  0
LINE
  8
1
 62
7
  6
CONTINUOUS
 10
258.337667
 20
292.000000
 11
258.337667
 21
297.000000
  0
LINE
  8
1
 62
7
  6
CONTINUOUS
 10
258.337667
 20
279.000000
 11
258.337667
 21
284.000000
  0
LINE
  8
1
 62
7
  6
CONTINUOUS
 10
296.935069
 20
284.000000
 11
323.064931
 21
284.000000
  0
LINE
  8
1
 62
7
  6
CONTINUOUS
 10
182.935069
 20
284.000000
 11
209.064931
 21
284.000000
  0
LINE
  8
1
 62
7
  6
CONTINUOUS
 10
260.337667
 20
293.000000
 11
260.854352
 21
293.000000
  0
LINE
  8
1
 62
7
  6
CONTINUOUS
 10
260.337667
 20
283.000000
 11
260.854352
 21
283.000000
  0
LINE
  8
1
 62
7
  6
CONTINUOUS
 10
299.071598
 20
283.000000
 11
320.928402
 21
283.000000
  0
LINE
  8
1
 62
7
  6
CONTINUOUS
 10
299.071598
 20
293.000000
 11
320.928402
 21
293.000000
  0
LINE
  8
1
 62
7
  6
CONTINUOUS
 10
332.500000
 20
328.500000
 11
333.000000
 21
328.000000
  0
LINE
  8
1
 62
7
  6
CONTINUOUS
 10
333.000000
 20
317.000000
 11
333.000000
 21
328.000000
  0
LINE
  8
1
 62
7
  6
CONTINUOUS
 10
332.500000
 20
316.500000
 11
333.000000
 21
317.000000
  0
LINE
  8
1
 62
7
  6
CONTINUOUS
 10
173.500000
 20
316.500000
 11
332.500000
 21
316.500000
  0
LINE
  8
1
 62
7
  6
CONTINUOUS
 10
173.000000
 20
317.000000
 11
173.500000
 21
316.500000
  0
LINE
  8
1
 62
7
  6
CONTINUOUS
 10
332.500000
 20
328.500000
 11
173.500000
 21
328.500000
  0
LINE
  8
1
 62
7
  6
CONTINUOUS
 10
173.000000
 20
328.000000
 11
173.000000
 21
317.000000
  0
LINE
  8
1
 62
7
  6
CONTINUOUS
 10
173.500000
 20
328.500000
 11
173.000000
 21
328.000000
  0
LINE
  8
1
 62
7
  6
CONTINUOUS
 10
173.500000
 20
259.500000
 11
173.000000
 21
259.000000
  0
LINE
  8
1
 62
7
  6
CONTINUOUS
 10
173.000000
 20
259.000000
 11
173.000000
 21
248.000000
  0
LINE
  8
1
 62
7
  6
CONTINUOUS
 10
173.500000
 20
247.500000
 11
173.000000
 21
248.000000
  0
LINE
  8
1
 62
7
  6
CONTINUOUS
 10
173.500000
 20
247.500000
 11
332.500000
 21
247.500000
  0
LINE
  8
1
 62
7
  6
CONTINUOUS
 10
333.000000
 20
248.000000
 11
332.500000
 21
247.500000
  0
LINE
  8
1
 62
7
  6
CONTINUOUS
 10
173.500000
 20
259.500000
 11
332.500000
 21
259.500000
  0
LINE
  8
1
 62
7
  6
CONTINUOUS
 10
333.000000
 20
248.000000
 11
333.000000
 21
259.000000
  0
LINE
  8
1
 62
7
  6
CONTINUOUS
 10
332.500000
 20
259.500000
 11
333.000000
 21
259.000000
  0
LINE
  8
1
 62
7
  6
CONTINUOUS
 10
206.928402
 20
293.000000
 11
185.071598
 21
293.000000
  0
LINE
  8
1
 62
7
  6
CONTINUOUS
 10
207.996666
 20
292.500000
 11
184.003334
 21
292.500000
  0
LINE
  8
1
 62
7
  6
CONTINUOUS
 10
206.928402
 20
283.000000
 11
185.071598
 21
283.000000
  0
LINE
  8
1
 62
7
  6
CONTINUOUS
 10
207.996666
 20
283.500000
 11
184.003334
 21
283.500000
  0
LINE
  8
1
 62
7
  6
CONTINUOUS
 10
357.662333
 20
297.070714
 11
357.162333
 21
297.570714
  0
LINE
  8
1
 62
7
  6
CONTINUOUS
 10
357.662333
 20
294.708204
 11
357.662333
 21
297.070714
  0
LINE
  8
1
 62
7
  6
CONTINUOUS
 10
352.333763
 20
297.070714
 11
357.662333
 21
297.070714
  0
LINE
  8
1
 62
7
  6
CONTINUOUS
 10
357.662333
 20
278.929286
 11
357.162333
 21
278.429286
  0
LINE
  8
1
 62
7
  6
CONTINUOUS
 10
357.662333
 20
281.291796
 11
357.662333
 21
278.929286
  0
LINE
  8
1
 62
7
  6
CONTINUOUS
 10
351.265498
 20
278.429286
 11
357.162333
 21
278.429286
  0
LINE
  8
1
 62
7
  6
CONTINUOUS
 10
352.333763
 20
278.929286
 11
357.662333
 21
278.929286
  0
LINE
  8
1
 62
7
  6
CONTINUOUS
 10
361.662333
 20
305.570714
 11
341.662333
 21
305.570714
  0
LINE
  8
1
 62
7
  6
CONTINUOUS
 10
343.662333
 20
312.570714
 11
359.662333
 21
312.570714
  0
LINE
  8
1
 62
7
  6
CONTINUOUS
 10
343.662333
 20
312.570714
 11
341.662333
 21
305.570714
  0
LINE
  8
1
 62
7
  6
CONTINUOUS
 10
359.662333
 20
312.570714
 11
361.662333
 21
305.570714
  0
LINE
  8
1
 62
7
  6
DASHDOT
 10
351.662333
 20
277.000000
 11
351.662333
 21
314.570714
  0
LINE
  8
1
 62
7
  6
CONTINUOUS
 10
358.662333
 20
298.070714
 11
358.662333
 21
303.570714
  0
LINE
  8
1
 62
7
  6
CONTINUOUS
 10
358.662333
 20
298.070714
 11
358.162333
 21
297.570714
  0
LINE
  8
1
 62
7
  6
CONTINUOUS
 10
361.662333
 20
303.870714
 11
361.662333
 21
305.570714
  0
LINE
  8
1
 62
7
  6
CONTINUOUS
 10
361.362333
 20
303.570714
 11
361.662333
 21
303.870714
  0
LINE
  8
1
 62
7
  6
CONTINUOUS
 10
341.662333
 20
305.570714
 11
341.662333
 21
303.870714
  0
LINE
  8
1
 62
7
  6
CONTINUOUS
 10
341.962333
 20
303.570714
 11
361.362333
 21
303.570714
  0
LINE
  8
1
 62
7
  6
CONTINUOUS
 10
341.662333
 20
303.870714
 11
341.962333
 21
303.570714
  0
LINE
  8
1
 62
7
  6
CONTINUOUS
 10
341.662333
 20
303.870714
 11
361.662333
 21
303.870714
  0
ARC
  8
1
 62
7
  6
CONTINUOUS
 10
372.132669
 20
313.153297
 40
1.307883
 50
-67.744453
 51
-36.977895
  0
ARC
  8
1
 62
7
  6
CONTINUOUS
 10
371.750645
 20
313.459048
 40
1.797039
 50
-37.439076
 51
-12.455052
  0
ARC
  8
1
 62
7
  6
CONTINUOUS
 10
370.935297
 20
313.681957
 40
2.641605
 50
-13.362019
 51
5.883683
  0
ARC
  8
1
 62
7
  6
CONTINUOUS
 10
370.210302
 20
313.642031
 40
3.367051
 50
5.294849
 51
21.562398
  0
ARC
  8
1
 62
7
  6
CONTINUOUS
 10
370.110055
 20
313.618022
 40
3.469137
 50
21.322695
 51
37.168755
  0
ARC
  8
1
 62
7
  6
CONTINUOUS
 10
370.587562
 20
313.976834
 40
2.871850
 50
37.220023
 51
55.100450
  0
ARC
  8
1
 62
7
  6
CONTINUOUS
 10
371.095777
 20
314.682186
 40
2.002625
 50
55.479727
 51
78.181128
  0
ARC
  8
1
 62
7
  6
CONTINUOUS
 10
371.241585
 20
315.279147
 40
1.388606
 50
79.024852
 51
108.193547
  0
LINE
  8
1
 62
7
  6
CONTINUOUS
 10
361.174409
 20
307.278450
 11
372.628727
 21
311.941094
  0
LINE
  8
1
 62
7
  6
CONTINUOUS
 10
359.792711
 20
312.114392
 11
370.808023
 21
316.598333
  0
LINE
  8
1
 62
7
  6
DASHDOT
 10
358.631153
 20
308.942372
 11
375.176617
 21
315.677441
  0
LINE
  8
1
 62
7
  6
CONTINUOUS
 10
351.265498
 20
297.570714
 11
358.162333
 21
297.570714
  0
LINE
  8
1
 62
7
  6
CONTINUOUS
 10
350.197233
 20
298.070714
 11
358.662333
 21
298.070714
  0
LINE
  8
1
 62
7
  6
CONTINUOUS
 10
344.662333
 20
303.570714
 11
344.662333
 21
300.661317
  0
LINE
  8
1
 62
7
  6
CONTINUOUS
 10
409.837667
 20
317.000000
 11
408.837667
 21
318.000000
  0
LINE
  8
1
 62
7
  6
CONTINUOUS
 10
408.837667
 20
318.000000
 11
392.837667
 21
318.000000
  0
LINE
  8
1
 62
7
  6
CONTINUOUS
 10
391.837667
 20
317.000000
 11
392.837667
 21
318.000000
  0
LINE
  8
1
 62
7
  6
CONTINUOUS
 10
409.837667
 20
259.000000
 11
409.837667
 21
317.000000
  0
LINE
  8
1
 62
7
  6
CONTINUOUS
 10
408.837667
 20
258.000000
 11
409.837667
 21
259.000000
  0
LINE
  8
1
 62
7
  6
CONTINUOUS
 10
391.837667
 20
317.000000
 11
391.837667
 21
259.000000
  0
LINE
  8
1
 62
7
  6
CONTINUOUS
 10
392.837667
 20
258.000000
 11
408.837667
 21
258.000000
  0
LINE
  8
1
 62
7
  6
CONTINUOUS
 10
391.837667
 20
259.000000
 11
392.837667
 21
258.000000
  0
LINE
  8
1
 62
7
  6
CONTINUOUS
 10
382.437667
 20
277.000000
 11
391.837667
 21
277.000000
  0
LINE
  8
1
 62
7
  6
CONTINUOUS
 10
381.837667
 20
277.600000
 11
382.437667
 21
277.000000
  0
LINE
  8
1
 62
7
  6
CONTINUOUS
 10
391.837667
 20
299.000000
 11
382.437667
 21
299.000000
  0
LINE
  8
1
 62
7
  6
CONTINUOUS
 10
381.837667
 20
298.400000
 11
381.837667
 21
277.600000
  0
LINE
  8
1
 62
7
  6
CONTINUOUS
 10
382.437667
 20
299.000000
 11
381.837667
 21
298.400000
  0
LINE
  8
1
 62
7
  6
CONTINUOUS
 10
359.145648
 20
293.000000
 11
381.837667
 21
293.000000
  0
LINE
  8
1
 62
7
  6
CONTINUOUS
 10
359.145648
 20
283.000000
 11
381.837667
 21
283.000000
  0
LINE
  8
1
 62
7
  6
CONTINUOUS
 10
382.437667
 20
299.000000
 11
382.437667
 21
277.000000
  0
LINE
  8
1
 62
7
  6
CONTINUOUS
 10
392.837667
 20
318.000000
 11
392.837667
 21
258.000000
  0
LINE
  8
1
 62
7
  6
CONTINUOUS
 10
408.837667
 20
258.000000
 11
408.837667
 21
318.000000
  0
LINE
  8
1
 62
7
  6
CONTINUOUS
 10
393.837667
 20
318.000000
 11
393.837667
 21
258.000000
  0
LINE
  8
1
 62
7
  6
CONTINUOUS
 10
407.837667
 20
258.000000
 11
407.837667
 21
318.000000
  0
LINE
  8
1
 62
7
  6
DASHDOT
 10
414.837667
 20
288.000000
 11
140.337667
 21
288.000000
  0
LINE
  8
1
 62
7
  6
CONTINUOUS
 10
404.570426
 20
268.865132
 11
407.837667
 21
268.865132
  0
LINE
  8
1
 62
7
  6
CONTINUOUS
 10
407.837667
 20
266.865132
 11
399.329046
 21
266.865132
  0
LINE
  8
1
 62
7
  6
CONTINUOUS
 10
394.087667
 20
264.865132
 11
407.837667
 21
264.865132
  0
LINE
  8
1
 62
7
  6
CONTINUOUS
 10
407.837667
 20
262.865132
 11
393.837667
 21
262.865132
  0
LINE
  8
1
 62
7
  6
CONTINUOUS
 10
393.837667
 20
260.865132
 11
407.837667
 21
260.865132
  0
LINE
  8
1
 62
7
  6
CONTINUOUS
 10
407.837667
 20
258.865132
 11
393.837667
 21
258.865132
  0
LINE
  8
1
 62
7
  6
CONTINUOUS
 10
395.837667
 20
258.000000
 11
395.837667
 21
265.532895
  0
LINE
  8
1
 62
7
  6
CONTINUOUS
 10
397.837667
 20
266.296053
 11
397.837667
 21
258.000000
  0
LINE
  8
1
 62
7
  6
CONTINUOUS
 10
399.837667
 20
258.000000
 11
399.837667
 21
267.059211
  0
LINE
  8
1
 62
7
  6
CONTINUOUS
 10
401.837667
 20
267.822368
 11
401.837667
 21
258.000000
  0
LINE
  8
1
 62
7
  6
CONTINUOUS
 10
403.837667
 20
258.000000
 11
403.837667
 21
268.585526
  0
LINE
  8
1
 62
7
  6
CONTINUOUS
 10
405.837667
 20
269.348684
 11
405.837667
 21
258.000000
  0
LINE
  8
1
 62
7
  6
CONTINUOUS
 10
397.104908
 20
307.134868
 11
393.837667
 21
307.134868
  0
LINE
  8
1
 62
7
  6
CONTINUOUS
 10
393.837667
 20
309.134868
 11
402.346288
 21
309.134868
  0
LINE
  8
1
 62
7
  6
CONTINUOUS
 10
407.587667
 20
311.134868
 11
393.837667
 21
311.134868
  0
LINE
  8
1
 62
7
  6
CONTINUOUS
 10
393.837667
 20
313.134868
 11
407.837667
 21
313.134868
  0
LINE
  8
1
 62
7
  6
CONTINUOUS
 10
407.837667
 20
315.134868
 11
393.837667
 21
315.134868
  0
LINE
  8
1
 62
7
  6
CONTINUOUS
 10
393.837667
 20
317.134868
 11
407.837667
 21
317.134868
  0
LINE
  8
1
 62
7
  6
CONTINUOUS
 10
405.837667
 20
318.000000
 11
405.837667
 21
310.467105
  0
LINE
  8
1
 62
7
  6
CONTINUOUS
 10
403.837667
 20
309.703947
 11
403.837667
 21
318.000000
  0
LINE
  8
1
 62
7
  6
CONTINUOUS
 10
401.837667
 20
318.000000
 11
401.837667
 21
308.940789
  0
LINE
  8
1
 62
7
  6
CONTINUOUS
 10
399.837667
 20
308.177632
 11
399.837667
 21
318.000000
  0
LINE
  8
1
 62
7
  6
CONTINUOUS
 10
397.837667
 20
318.000000
 11
397.837667
 21
307.414474
  0
LINE
  8
1
 62
7
  6
CONTINUOUS
 10
395.837667
 20
306.651316
 11
395.837667
 21
318.000000
  0
LINE
  8
1
 62
7
  6
DASHDOT
 10
253.000000
 20
375.500000
 11
253.000000
 21
242.500000
  0
LINE
  8
1
 62
7
  6
DIVIDE
 10
332.500000
 20
370.500000
 11
333.000000
 21
370.000000
  0
LINE
  8
1
 62
7
  6
DIVIDE
 10
333.000000
 20
359.000000
 11
333.000000
 21
370.000000
  0
LINE
  8
1
 62
7
  6
DIVIDE
 10
332.500000
 20
370.500000
 11
173.500000
 21
370.500000
  0
LINE
  8
1
 62
7
  6
DIVIDE
 10
173.000000
 20
370.000000
 11
173.000000
 21
359.000000
  0
LINE
  8
1
 62
7
  6
DIVIDE
 10
173.500000
 20
370.500000
 11
173.000000
 21
370.000000
  0
LINE
  8
1
 62
7
  6
DASHDOT
 10
432.688306
 20
309.000000
 11
411.688306
 21
309.000000
  0
LINE
  8
1
 62
7
  6
DIVIDE
 10
429.688306
 20
338.000000
 11
428.688306
 21
339.000000
  0
LINE
  8
1
 62
7
  6
DIVIDE
 10
428.688306
 20
339.000000
 11
412.688306
 21
339.000000
  0
LINE
  8
1
 62
7
  6
DIVIDE
 10
411.688306
 20
338.000000
 11
412.688306
 21
339.000000
  0
LINE
  8
1
 62
7
  6
DIVIDE
 10
411.688306
 20
320.000000
 11
402.288306
 21
320.000000
  0
LINE
  8
1
 62
7
  6
DIVIDE
 10
402.288306
 20
320.000000
 11
401.688306
 21
319.400000
  0
LINE
  8
1
 62
7
  6
DIVIDE
 10
428.688306
 20
279.000000
 11
429.688306
 21
280.000000
  0
LINE
  8
1
 62
7
  6
DIVIDE
 10
412.688306
 20
279.000000
 11
428.688306
 21
279.000000
  0
LINE
  8
1
 62
7
  6
DIVIDE
 10
411.688306
 20
280.000000
 11
412.688306
 21
279.000000
  0
LINE
  8
1
 62
7
  6
DIVIDE
 10
429.688306
 20
280.000000
 11
429.688306
 21
338.000000
  0
LINE
  8
1
 62
7
  6
DIVIDE
 10
411.688306
 20
338.000000
 11
411.688306
 21
280.000000
  0
LINE
  8
1
 62
7
  6
DIVIDE
 10
412.688306
 20
339.000000
 11
412.688306
 21
279.000000
  0
LINE
  8
1
 62
7
  6
DIVIDE
 10
413.688306
 20
339.000000
 11
413.688306
 21
279.000000
  0
LINE
  8
1
 62
7
  6
DIVIDE
 10
428.688306
 20
279.000000
 11
428.688306
 21
339.000000
  0
LINE
  8
1
 62
7
  6
DIVIDE
 10
427.688306
 20
279.000000
 11
427.688306
 21
339.000000
  0
LINE
  8
1
 62
7
  6
DASHDOT
 10
253.000000
 20
523.500000
 11
253.000000
 21
413.500000
  0
LINE
  8
1
 62
7
  6
CONTINUOUS
 10
145.837667
 20
506.000000
 11
145.337667
 21
505.500000
  0
LINE
  8
1
 62
7
  6
CONTINUOUS
 10
163.337667
 20
505.500000
 11
162.837667
 21
506.000000
  0
LINE
  8
1
 62
7
  6
CONTINUOUS
 10
145.337667
 20
505.500000
 11
163.337667
 21
505.500000
  0
LINE
  8
1
 62
7
  6
CONTINUOUS
 10
145.837667
 20
506.000000
 11
145.837667
 21
509.000000
  0
LINE
  8
1
 62
7
  6
CONTINUOUS
 10
145.837667
 20
509.000000
 11
173.000000
 21
509.000000
  0
LINE
  8
1
 62
7
  6
CONTINUOUS
 10
146.837667
 20
509.000000
 11
146.837667
 21
509.250000
  0
LINE
  8
1
 62
7
  6
CONTINUOUS
 10
161.837667
 20
509.250000
 11
161.837667
 21
509.000000
  0
LINE
  8
1
 62
7
  6
CONTINUOUS
 10
145.837667
 20
509.250000
 11
173.000000
 21
509.250000
  0
LINE
  8
1
 62
7
  6
CONTINUOUS
 10
145.837667
 20
509.250000
 11
145.837667
 21
512.250000
  0
LINE
  8
1
 62
7
  6
CONTINUOUS
 10
145.837667
 20
512.250000
 11
173.000000
 21
512.250000
  0
LINE
  8
1
 62
7
  6
CONTINUOUS
 10
173.000000
 20
506.000000
 11
145.837667
 21
506.000000
  0
LINE
  8
1
 62
7
  6
CONTINUOUS
 10
145.837667
 20
512.250000
 11
145.837667
 21
513.250000
  0
LINE
  8
1
 62
7
  6
CONTINUOUS
 10
145.837667
 20
513.250000
 11
162.837667
 21
513.250000
  0
LINE
  8
1
 62
7
  6
CONTINUOUS
 10
162.837667
 20
513.250000
 11
162.837667
 21
512.250000
  0
LINE
  8
1
 62
7
  6
CONTINUOUS
 10
162.837667
 20
515.750000
 11
162.837667
 21
513.250000
  0
LINE
  8
1
 62
7
  6
CONTINUOUS
 10
162.337667
 20
516.250000
 11
162.837667
 21
515.750000
  0
LINE
  8
1
 62
7
  6
CONTINUOUS
 10
145.837667
 20
513.250000
 11
145.837667
 21
515.750000
  0
LINE
  8
1
 62
7
  6
CONTINUOUS
 10
146.337667
 20
516.250000
 11
162.337667
 21
516.250000
  0
LINE
  8
1
 62
7
  6
CONTINUOUS
 10
145.837667
 20
515.750000
 11
146.337667
 21
516.250000
  0
LINE
  8
1
 62
7
  6
CONTINUOUS
 10
145.837667
 20
515.750000
 11
162.837667
 21
515.750000
  0
LINE
  8
1
 62
7
  6
CONTINUOUS
 10
145.837667
 20
431.000000
 11
145.337667
 21
431.500000
  0
LINE
  8
1
 62
7
  6
CONTINUOUS
 10
163.337667
 20
431.500000
 11
162.837667
 21
431.000000
  0
LINE
  8
1
 62
7
  6
CONTINUOUS
 10
145.337667
 20
431.500000
 11
163.337667
 21
431.500000
  0
LINE
  8
1
 62
7
  6
CONTINUOUS
 10
145.837667
 20
431.000000
 11
145.837667
 21
428.000000
  0
LINE
  8
1
 62
7
  6
CONTINUOUS
 10
145.837667
 20
428.000000
 11
173.000000
 21
428.000000
  0
LINE
  8
1
 62
7
  6
CONTINUOUS
 10
146.837667
 20
428.000000
 11
146.837667
 21
427.750000
  0
LINE
  8
1
 62
7
  6
CONTINUOUS
 10
161.837667
 20
427.750000
 11
161.837667
 21
428.000000
  0
LINE
  8
1
 62
7
  6
CONTINUOUS
 10
145.837667
 20
427.750000
 11
173.000000
 21
427.750000
  0
LINE
  8
1
 62
7
  6
CONTINUOUS
 10
145.837667
 20
427.750000
 11
145.837667
 21
424.750000
  0
LINE
  8
1
 62
7
  6
CONTINUOUS
 10
145.837667
 20
424.750000
 11
173.000000
 21
424.750000
  0
LINE
  8
1
 62
7
  6
CONTINUOUS
 10
173.000000
 20
431.000000
 11
145.837667
 21
431.000000
  0
LINE
  8
1
 62
7
  6
CONTINUOUS
 10
145.837667
 20
424.750000
 11
145.837667
 21
423.750000
  0
LINE
  8
1
 62
7
  6
CONTINUOUS
 10
145.837667
 20
423.750000
 11
162.837667
 21
423.750000
  0
LINE
  8
1
 62
7
  6
CONTINUOUS
 10
162.837667
 20
423.750000
 11
162.837667
 21
424.750000
  0
LINE
  8
1
 62
7
  6
CONTINUOUS
 10
162.837667
 20
421.250000
 11
162.837667
 21
423.750000
  0
LINE
  8
1
 62
7
  6
CONTINUOUS
 10
162.337667
 20
420.750000
 11
162.837667
 21
421.250000
  0
LINE
  8
1
 62
7
  6
CONTINUOUS
 10
145.837667
 20
423.750000
 11
145.837667
 21
421.250000
  0
LINE
  8
1
 62
7
  6
CONTINUOUS
 10
146.337667
 20
420.750000
 11
162.337667
 21
420.750000
  0
LINE
  8
1
 62
7
  6
CONTINUOUS
 10
145.837667
 20
421.250000
 11
146.337667
 21
420.750000
  0
LINE
  8
1
 62
7
  6
CONTINUOUS
 10
145.837667
 20
421.250000
 11
162.837667
 21
421.250000
  0
LINE
  8
1
 62
7
  6
DASHDOT
 10
154.337667
 20
417.750000
 11
154.337667
 21
519.250000
  0
LINE
  8
1
 62
7
  6
CONTINUOUS
 10
163.337667
 20
486.500000
 11
173.000000
 21
486.500000
  0
LINE
  8
1
 62
7
  6
CONTINUOUS
 10
163.337667
 20
478.500000
 11
173.000000
 21
478.500000
  0
LINE
  8
1
 62
7
  6
CONTINUOUS
 10
163.337667
 20
450.500000
 11
173.000000
 21
450.500000
  0
LINE
  8
1
 62
7
  6
CONTINUOUS
 10
163.337667
 20
458.500000
 11
173.000000
 21
458.500000
  0
ARC
  8
1
 62
7
  6
CONTINUOUS
 10
163.375236
 20
486.091880
 40
0.409846
 50
95.259439
 51
165.352470
  0
ARC
  8
1
 62
7
  6
CONTINUOUS
 10
165.660299
 20
484.767459
 40
3.038136
 50
151.962815
 51
169.359726
  0
ARC
  8
1
 62
7
  6
CONTINUOUS
 10
171.906946
 20
483.217022
 40
9.470899
 50
167.118461
 51
175.071242
  0
ARC
  8
1
 62
7
  6
CONTINUOUS
 10
178.104083
 20
482.534500
 40
15.704454
 50
174.532883
 51
-179.874129
  0
ARC
  8
1
 62
7
  6
CONTINUOUS
 10
178.694586
 20
482.493044
 40
16.294920
 50
179.975540
 51
-174.634294
  0
ARC
  8
1
 62
7
  6
CONTINUOUS
 10
173.116107
 20
481.972438
 40
10.692203
 50
-174.616433
 51
-167.573269
  0
ARC
  8
1
 62
7
  6
CONTINUOUS
 10
166.471011
 20
480.517064
 40
3.889615
 50
-167.445311
 51
-153.877230
  0
ARC
  8
1
 62
7
  6
CONTINUOUS
 10
163.500497
 20
479.055793
 40
0.579154
 50
-154.282921
 51
-106.328988
  0
LINE
  8
1
 62
7
  6
CONTINUOUS
 10
163.337667
 20
486.500000
 11
163.337667
 21
505.500000
  0
ARC
  8
1
 62
7
  6
CONTINUOUS
 10
163.375236
 20
458.091880
 40
0.409846
 50
95.259439
 51
165.352470
  0
ARC
  8
1
 62
7
  6
CONTINUOUS
 10
165.660299
 20
456.767459
 40
3.038136
 50
151.962815
 51
169.359726
  0
ARC
  8
1
 62
7
  6
CONTINUOUS
 10
171.906946
 20
455.217022
 40
9.470899
 50
167.118461
 51
175.071242
  0
ARC
  8
1
 62
7
  6
CONTINUOUS
 10
178.104083
 20
454.534500
 40
15.704454
 50
174.532883
 51
-179.874129
  0
ARC
  8
1
 62
7
  6
CONTINUOUS
 10
178.694586
 20
454.493044
 40
16.294920
 50
179.975540
 51
-174.634294
  0
ARC
  8
1
 62
7
  6
CONTINUOUS
 10
173.116107
 20
453.972438
 40
10.692203
 50
-174.616433
 51
-167.573269
  0
ARC
  8
1
 62
7
  6
CONTINUOUS
 10
166.471011
 20
452.517064
 40
3.889615
 50
-167.445311
 51
-153.877230
  0
ARC
  8
1
 62
7
  6
CONTINUOUS
 10
163.500497
 20
451.055793
 40
0.579154
 50
-154.282921
 51
-106.328988
  0
LINE
  8
1
 62
7
  6
CONTINUOUS
 10
163.337667
 20
458.500000
 11
163.337667
 21
478.500000
  0
LINE
  8
1
 62
7
  6
CONTINUOUS
 10
163.337667
 20
431.500000
 11
163.337667
 21
450.500000
  0
LINE
  8
1
 62
7
  6
DASHDOT
 10
142.337667
 20
482.500000
 11
176.000000
 21
482.500000
  0
LINE
  8
1
 62
7
  6
DASHDOT
 10
142.337667
 20
454.500000
 11
176.000000
 21
454.500000
  0
ARC
  8
1
 62
7
  6
CONTINUOUS
 10
145.300098
 20
486.091880
 40
0.409846
 50
14.647530
 51
84.740561
  0
ARC
  8
1
 62
7
  6
CONTINUOUS
 10
143.015035
 20
484.767459
 40
3.038136
 50
10.640274
 51
28.037185
  0
ARC
  8
1
 62
7
  6
CONTINUOUS
 10
136.768388
 20
483.217022
 40
9.470899
 50
4.928758
 51
12.881539
  0
ARC
  8
1
 62
7
  6
CONTINUOUS
 10
130.571251
 20
482.534500
 40
15.704454
 50
-0.125871
 51
5.467117
  0
ARC
  8
1
 62
7
  6
CONTINUOUS
 10
129.980748
 20
482.493044
 40
16.294920
 50
-5.365706
 51
0.024460
  0
ARC
  8
1
 62
7
  6
CONTINUOUS
 10
135.559227
 20
481.972438
 40
10.692203
 50
-12.426731
 51
-5.383567
  0
ARC
  8
1
 62
7
  6
CONTINUOUS
 10
142.204323
 20
480.517064
 40
3.889615
 50
-26.122770
 51
-12.554689
  0
ARC
  8
1
 62
7
  6
CONTINUOUS
 10
145.174836
 20
479.055793
 40
0.579154
 50
-73.671012
 51
-25.717079
  0
LINE
  8
1
 62
7
  6
CONTINUOUS
 10
145.337667
 20
505.500000
 11
145.337667
 21
486.500000
  0
LINE
  8
1
 62
7
  6
CONTINUOUS
 10
145.337667
 20
450.500000
 11
145.337667
 21
431.500000
  0
LINE
  8
1
 62
7
  6
CONTINUOUS
 10
145.337667
 20
478.500000
 11
145.337667
 21
458.500000
  0
LINE
  8
1
 62
7
  6
CONTINUOUS
 10
145.337667
 20
486.000000
 11
145.337667
 21
479.000000
  0
LINE
  8
1
 62
7
  6
CONTINUOUS
 10
145.633508
 20
486.295841
 11
145.337667
 21
486.000000
  0
LINE
  8
1
 62
7
  6
CONTINUOUS
 10
145.337667
 20
479.000000
 11
145.633508
 21
478.704159
  0
LINE
  8
1
 62
7
  6
CONTINUOUS
 10
145.837667
 20
479.115663
 11
145.837667
 21
485.884337
  0
ARC
  8
1
 62
7
  6
CONTINUOUS
 10
145.300098
 20
458.091880
 40
0.409846
 50
14.647530
 51
84.740561
  0
ARC
  8
1
 62
7
  6
CONTINUOUS
 10
143.015035
 20
456.767459
 40
3.038136
 50
10.640274
 51
28.037185
  0
ARC
  8
1
 62
7
  6
CONTINUOUS
 10
136.768388
 20
455.217022
 40
9.470899
 50
4.928758
 51
12.881539
  0
ARC
  8
1
 62
7
  6
CONTINUOUS
 10
130.571251
 20
454.534500
 40
15.704454
 50
-0.125871
 51
5.467117
  0
ARC
  8
1
 62
7
  6
CONTINUOUS
 10
129.980748
 20
454.493044
 40
16.294920
 50
-5.365706
 51
0.024460
  0
ARC
  8
1
 62
7
  6
CONTINUOUS
 10
135.559227
 20
453.972438
 40
10.692203
 50
-12.426731
 51
-5.383567
  0
ARC
  8
1
 62
7
  6
CONTINUOUS
 10
142.204323
 20
452.517064
 40
3.889615
 50
-26.122770
 51
-12.554689
  0
ARC
  8
1
 62
7
  6
CONTINUOUS
 10
145.174836
 20
451.055793
 40
0.579154
 50
-73.671012
 51
-25.717079
  0
LINE
  8
1
 62
7
  6
CONTINUOUS
 10
145.337667
 20
458.000000
 11
145.337667
 21
451.000000
  0
LINE
  8
1
 62
7
  6
CONTINUOUS
 10
145.633508
 20
458.295841
 11
145.337667
 21
458.000000
  0
LINE
  8
1
 62
7
  6
CONTINUOUS
 10
145.337667
 20
451.000000
 11
145.633508
 21
450.704159
  0
LINE
  8
1
 62
7
  6
CONTINUOUS
 10
145.837667
 20
451.115663
 11
145.837667
 21
457.884337
  0
LINE
  8
1
 62
7
  6
CONTINUOUS
 10
360.162333
 20
506.000000
 11
360.662333
 21
505.500000
  0
LINE
  8
1
 62
7
  6
CONTINUOUS
 10
342.662333
 20
505.500000
 11
343.162333
 21
506.000000
  0
LINE
  8
1
 62
7
  6
CONTINUOUS
 10
360.662333
 20
505.500000
 11
342.662333
 21
505.500000
  0
LINE
  8
1
 62
7
  6
CONTINUOUS
 10
360.162333
 20
506.000000
 11
360.162333
 21
509.000000
  0
LINE
  8
1
 62
7
  6
CONTINUOUS
 10
360.162333
 20
509.000000
 11
333.000000
 21
509.000000
  0
LINE
  8
1
 62
7
  6
CONTINUOUS
 10
359.162333
 20
509.000000
 11
359.162333
 21
509.250000
  0
LINE
  8
1
 62
7
  6
CONTINUOUS
 10
344.162333
 20
509.250000
 11
344.162333
 21
509.000000
  0
LINE
  8
1
 62
7
  6
CONTINUOUS
 10
360.162333
 20
509.250000
 11
333.000000
 21
509.250000
  0
LINE
  8
1
 62
7
  6
CONTINUOUS
 10
360.162333
 20
509.250000
 11
360.162333
 21
512.250000
  0
LINE
  8
1
 62
7
  6
CONTINUOUS
 10
360.162333
 20
512.250000
 11
333.000000
 21
512.250000
  0
LINE
  8
1
 62
7
  6
CONTINUOUS
 10
333.000000
 20
506.000000
 11
360.162333
 21
506.000000
  0
LINE
  8
1
 62
7
  6
CONTINUOUS
 10
360.162333
 20
512.250000
 11
360.162333
 21
513.250000
  0
LINE
  8
1
 62
7
  6
CONTINUOUS
 10
360.162333
 20
513.250000
 11
343.162333
 21
513.250000
  0
LINE
  8
1
 62
7
  6
CONTINUOUS
 10
343.162333
 20
513.250000
 11
343.162333
 21
512.250000
  0
LINE
  8
1
 62
7
  6
CONTINUOUS
 10
343.162333
 20
515.750000
 11
343.162333
 21
513.250000
  0
LINE
  8
1
 62
7
  6
CONTINUOUS
 10
343.662333
 20
516.250000
 11
343.162333
 21
515.750000
  0
LINE
  8
1
 62
7
  6
CONTINUOUS
 10
360.162333
 20
513.250000
 11
360.162333
 21
515.750000
  0
LINE
  8
1
 62
7
  6
CONTINUOUS
 10
359.662333
 20
516.250000
 11
343.662333
 21
516.250000
  0
LINE
  8
1
 62
7
  6
CONTINUOUS
 10
360.162333
 20
515.750000
 11
359.662333
 21
516.250000
  0
LINE
  8
1
 62
7
  6
CONTINUOUS
 10
360.162333
 20
515.750000
 11
343.162333
 21
515.750000
  0
LINE
  8
1
 62
7
  6
CONTINUOUS
 10
360.162333
 20
431.000000
 11
360.662333
 21
431.500000
  0
LINE
  8
1
 62
7
  6
CONTINUOUS
 10
342.662333
 20
431.500000
 11
343.162333
 21
431.000000
  0
LINE
  8
1
 62
7
  6
CONTINUOUS
 10
360.662333
 20
431.500000
 11
342.662333
 21
431.500000
  0
LINE
  8
1
 62
7
  6
CONTINUOUS
 10
360.162333
 20
431.000000
 11
360.162333
 21
428.000000
  0
LINE
  8
1
 62
7
  6
CONTINUOUS
 10
360.162333
 20
428.000000
 11
333.000000
 21
428.000000
  0
LINE
  8
1
 62
7
  6
CONTINUOUS
 10
359.162333
 20
428.000000
 11
359.162333
 21
427.750000
  0
LINE
  8
1
 62
7
  6
CONTINUOUS
 10
344.162333
 20
427.750000
 11
344.162333
 21
428.000000
  0
LINE
  8
1
 62
7
  6
CONTINUOUS
 10
360.162333
 20
427.750000
 11
333.000000
 21
427.750000
  0
LINE
  8
1
 62
7
  6
CONTINUOUS
 10
360.162333
 20
427.750000
 11
360.162333
 21
424.750000
  0
LINE
  8
1
 62
7
  6
CONTINUOUS
 10
360.162333
 20
424.750000
 11
333.000000
 21
424.750000
  0
LINE
  8
1
 62
7
  6
CONTINUOUS
 10
333.000000
 20
431.000000
 11
360.162333
 21
431.000000
  0
LINE
  8
1
 62
7
  6
CONTINUOUS
 10
360.162333
 20
424.750000
 11
360.162333
 21
423.750000
  0
LINE
  8
1
 62
7
  6
CONTINUOUS
 10
360.162333
 20
423.750000
 11
343.162333
 21
423.750000
  0
LINE
  8
1
 62
7
  6
CONTINUOUS
 10
343.162333
 20
423.750000
 11
343.162333
 21
424.750000
  0
LINE
  8
1
 62
7
  6
CONTINUOUS
 10
343.162333
 20
421.250000
 11
343.162333
 21
423.750000
  0
LINE
  8
1
 62
7
  6
CONTINUOUS
 10
343.662333
 20
420.750000
 11
343.162333
 21
421.250000
  0
LINE
  8
1
 62
7
  6
CONTINUOUS
 10
360.162333
 20
423.750000
 11
360.162333
 21
421.250000
  0
LINE
  8
1
 62
7
  6
CONTINUOUS
 10
359.662333
 20
420.750000
 11
343.662333
 21
420.750000
  0
LINE
  8
1
 62
7
  6
CONTINUOUS
 10
360.162333
 20
421.250000
 11
359.662333
 21
420.750000
  0
LINE
  8
1
 62
7
  6
CONTINUOUS
 10
360.162333
 20
421.250000
 11
343.162333
 21
421.250000
  0
LINE
  8
1
 62
7
  6
CONTINUOUS
 10
342.662333
 20
496.500000
 11
333.000000
 21
496.500000
  0
LINE
  8
1
 62
7
  6
CONTINUOUS
 10
342.662333
 20
488.500000
 11
333.000000
 21
488.500000
  0
ARC
  8
1
 62
7
  6
CONTINUOUS
 10
342.624764
 20
496.091880
 40
0.409846
 50
14.647530
 51
84.740561
  0
ARC
  8
1
 62
7
  6
CONTINUOUS
 10
340.339701
 20
494.767459
 40
3.038136
 50
10.640274
 51
28.037185
  0
ARC
  8
1
 62
7
  6
CONTINUOUS
 10
334.093054
 20
493.217022
 40
9.470899
 50
4.928758
 51
12.881539
  0
ARC
  8
1
 62
7
  6
CONTINUOUS
 10
327.895917
 20
492.534500
 40
15.704454
 50
-0.125871
 51
5.467117
  0
ARC
  8
1
 62
7
  6
CONTINUOUS
 10
327.305414
 20
492.493044
 40
16.294920
 50
-5.365706
 51
0.024460
  0
ARC
  8
1
 62
7
  6
CONTINUOUS
 10
332.883893
 20
491.972438
 40
10.692203
 50
-12.426731
 51
-5.383567
  0
ARC
  8
1
 62
7
  6
CONTINUOUS
 10
339.528989
 20
490.517064
 40
3.889615
 50
-26.122770
 51
-12.554689
  0
ARC
  8
1
 62
7
  6
CONTINUOUS
 10
342.499503
 20
489.055793
 40
0.579154
 50
-73.671012
 51
-25.717079
  0
LINE
  8
1
 62
7
  6
CONTINUOUS
 10
342.662333
 20
496.500000
 11
342.662333
 21
505.500000
  0
LINE
  8
1
 62
7
  6
DASHDOT
 10
363.662333
 20
492.500000
 11
330.000000
 21
492.500000
  0
LINE
  8
1
 62
7
  6
CONTINUOUS
 10
360.662333
 20
505.500000
 11
360.662333
 21
496.500000
  0
LINE
  8
1
 62
7
  6
CONTINUOUS
 10
360.366492
 20
496.295841
 11
360.662333
 21
496.000000
  0
LINE
  8
1
 62
7
  6
CONTINUOUS
 10
342.662333
 20
440.500000
 11
333.000000
 21
440.500000
  0
LINE
  8
1
 62
7
  6
CONTINUOUS
 10
342.662333
 20
448.500000
 11
333.000000
 21
448.500000
  0
ARC
  8
1
 62
7
  6
CONTINUOUS
 10
342.624764
 20
448.091880
 40
0.409846
 50
14.647530
 51
84.740561
  0
ARC
  8
1
 62
7
  6
CONTINUOUS
 10
340.339701
 20
446.767459
 40
3.038136
 50
10.640274
 51
28.037185
  0
ARC
  8
1
 62
7
  6
CONTINUOUS
 10
334.093054
 20
445.217022
 40
9.470899
 50
4.928758
 51
12.881539
  0
ARC
  8
1
 62
7
  6
CONTINUOUS
 10
327.895917
 20
444.534500
 40
15.704454
 50
-0.125871
 51
5.467117
  0
ARC
  8
1
 62
7
  6
CONTINUOUS
 10
327.305414
 20
444.493044
 40
16.294920
 50
-5.365706
 51
0.024460
  0
ARC
  8
1
 62
7
  6
CONTINUOUS
 10
332.883893
 20
443.972438
 40
10.692203
 50
-12.426731
 51
-5.383567
  0
ARC
  8
1
 62
7
  6
CONTINUOUS
 10
339.528989
 20
442.517064
 40
3.889615
 50
-26.122770
 51
-12.554689
  0
ARC
  8
1
 62
7
  6
CONTINUOUS
 10
342.499503
 20
441.055793
 40
0.579154
 50
-73.671012
 51
-25.717079
  0
LINE
  8
1
 62
7
  6
CONTINUOUS
 10
342.662333
 20
431.500000
 11
342.662333
 21
440.500000
  0
LINE
  8
1
 62
7
  6
DASHDOT
 10
363.662333
 20
444.500000
 11
330.000000
 21
444.500000
  0
LINE
  8
1
 62
7
  6
CONTINUOUS
 10
360.662333
 20
440.500000
 11
360.662333
 21
431.500000
  0
ARC
  8
1
 62
7
  6
CONTINUOUS
 10
360.699902
 20
448.091880
 40
0.409846
 50
95.259439
 51
165.352470
  0
ARC
  8
1
 62
7
  6
CONTINUOUS
 10
362.984965
 20
446.767459
 40
3.038136
 50
151.962815
 51
169.359726
  0
ARC
  8
1
 62
7
  6
CONTINUOUS
 10
369.231612
 20
445.217022
 40
9.470899
 50
167.118461
 51
175.071242
  0
ARC
  8
1
 62
7
  6
CONTINUOUS
 10
375.428749
 20
444.534500
 40
15.704454
 50
174.532883
 51
-179.874129
  0
ARC
  8
1
 62
7
  6
CONTINUOUS
 10
376.019252
 20
444.493044
 40
16.294920
 50
179.975540
 51
-174.634294
  0
ARC
  8
1
 62
7
  6
CONTINUOUS
 10
370.440773
 20
443.972438
 40
10.692203
 50
-174.616433
 51
-167.573269
  0
ARC
  8
1
 62
7
  6
CONTINUOUS
 10
363.795677
 20
442.517064
 40
3.889615
 50
-167.445311
 51
-153.877230
  0
ARC
  8
1
 62
7
  6
CONTINUOUS
 10
360.825164
 20
441.055793
 40
0.579154
 50
-154.282921
 51
-106.328988
  0
LINE
  8
1
 62
7
  6
CONTINUOUS
 10
360.662333
 20
448.000000
 11
360.662333
 21
441.000000
  0
LINE
  8
1
 62
7
  6
CONTINUOUS
 10
360.366492
 20
448.295841
 11
360.662333
 21
448.000000
  0
LINE
  8
1
 62
7
  6
CONTINUOUS
 10
360.662333
 20
441.000000
 11
360.366492
 21
440.704159
  0
LINE
  8
1
 62
7
  6
CONTINUOUS
 10
360.162333
 20
441.115663
 11
360.162333
 21
447.884337
  0
LINE
  8
1
 62
7
  6
DASHDOT
 10
351.662333
 20
417.750000
 11
351.662333
 21
519.250000
  0
CIRCLE
  8
1
 62
7
  6
CONTINUOUS
 10
253.000000
 20
468.500000
 40
1.650000
  0
CIRCLE
  8
1
 62
7
  6
CONTINUOUS
 10
253.000000
 20
468.500000
 40
2.000000
  0
CIRCLE
  8
1
 62
7
  6
CONTINUOUS
 10
228.000000
 20
468.500000
 40
2.000000
  0
CIRCLE
  8
1
 62
7
  6
CONTINUOUS
 10
228.000000
 20
468.500000
 40
1.650000
  0
CIRCLE
  8
1
 62
7
  6
CONTINUOUS
 10
228.000000
 20
493.500000
 40
1.650000
  0
CIRCLE
  8
1
 62
7
  6
CONTINUOUS
 10
228.000000
 20
493.500000
 40
2.000000
  0
LINE
  8
1
 62
7
  6
DASHDOT
 10
223.000000
 20
493.500000
 11
233.000000
 21
493.500000
  0
LINE
  8
1
 62
7
  6
DASHDOT
 10
228.000000
 20
488.500000
 11
228.000000
 21
498.500000
  0
LINE
  8
1
 62
7
  6
DASHDOT
 10
228.000000
 20
463.500000
 11
228.000000
 21
473.500000
  0
CIRCLE
  8
1
 62
7
  6
CONTINUOUS
 10
203.000000
 20
493.500000
 40
1.650000
  0
CIRCLE
  8
1
 62
7
  6
CONTINUOUS
 10
203.000000
 20
493.500000
 40
2.000000
  0
LINE
  8
1
 62
7
  6
DASHDOT
 10
198.000000
 20
493.500000
 11
208.000000
 21
493.500000
  0
LINE
  8
1
 62
7
  6
DASHDOT
 10
203.000000
 20
488.500000
 11
203.000000
 21
498.500000
  0
CIRCLE
  8
1
 62
7
  6
CONTINUOUS
 10
203.000000
 20
468.500000
 40
2.000000
  0
CIRCLE
  8
1
 62
7
  6
CONTINUOUS
 10
203.000000
 20
468.500000
 40
1.650000
  0
LINE
  8
1
 62
7
  6
DASHDOT
 10
203.000000
 20
463.500000
 11
203.000000
 21
473.500000
  0
CIRCLE
  8
1
 62
7
  6
CONTINUOUS
 10
278.000000
 20
468.500000
 40
2.000000
  0
CIRCLE
  8
1
 62
7
  6
CONTINUOUS
 10
278.000000
 20
468.500000
 40
1.650000
  0
CIRCLE
  8
1
 62
7
  6
CONTINUOUS
 10
278.000000
 20
493.500000
 40
1.650000
  0
CIRCLE
  8
1
 62
7
  6
CONTINUOUS
 10
278.000000
 20
493.500000
 40
2.000000
  0
LINE
  8
1
 62
7
  6
DASHDOT
 10
283.000000
 20
493.500000
 11
273.000000
 21
493.500000
  0
LINE
  8
1
 62
7
  6
DASHDOT
 10
278.000000
 20
488.500000
 11
278.000000
 21
498.500000
  0
LINE
  8
1
 62
7
  6
DASHDOT
 10
278.000000
 20
463.500000
 11
278.000000
 21
473.500000
  0
CIRCLE
  8
1
 62
7
  6
CONTINUOUS
 10
303.000000
 20
493.500000
 40
1.650000
  0
CIRCLE
  8
1
 62
7
  6
CONTINUOUS
 10
303.000000
 20
493.500000
 40
2.000000
  0
LINE
  8
1
 62
7
  6
DASHDOT
 10
308.000000
 20
493.500000
 11
298.000000
 21
493.500000
  0
LINE
  8
1
 62
7
  6
DASHDOT
 10
303.000000
 20
488.500000
 11
303.000000
 21
498.500000
  0
CIRCLE
  8
1
 62
7
  6
CONTINUOUS
 10
303.000000
 20
468.500000
 40
2.000000
  0
CIRCLE
  8
1
 62
7
  6
CONTINUOUS
 10
303.000000
 20
468.500000
 40
1.650000
  0
LINE
  8
1
 62
7
  6
DASHDOT
 10
303.000000
 20
463.500000
 11
303.000000
 21
473.500000
  0
CIRCLE
  8
1
 62
7
  6
CONTINUOUS
 10
253.000000
 20
493.500000
 40
2.000000
  0
CIRCLE
  8
1
 62
7
  6
CONTINUOUS
 10
253.000000
 20
493.500000
 40
1.650000
  0
LINE
  8
1
 62
7
  6
DASHDOT
 10
248.000000
 20
493.500000
 11
258.000000
 21
493.500000
  0
CIRCLE
  8
1
 62
7
  6
CONTINUOUS
 10
228.000000
 20
443.500000
 40
1.650000
  0
CIRCLE
  8
1
 62
7
  6
CONTINUOUS
 10
228.000000
 20
443.500000
 40
2.000000
  0
LINE
  8
1
 62
7
  6
DASHDOT
 10
223.000000
 20
443.500000
 11
233.000000
 21
443.500000
  0
LINE
  8
1
 62
7
  6
DASHDOT
 10
228.000000
 20
448.500000
 11
228.000000
 21
438.500000
  0
CIRCLE
  8
1
 62
7
  6
CONTINUOUS
 10
203.000000
 20
443.500000
 40
1.650000
  0
CIRCLE
  8
1
 62
7
  6
CONTINUOUS
 10
203.000000
 20
443.500000
 40
2.000000
  0
LINE
  8
1
 62
7
  6
DASHDOT
 10
198.000000
 20
443.500000
 11
208.000000
 21
443.500000
  0
LINE
  8
1
 62
7
  6
DASHDOT
 10
203.000000
 20
448.500000
 11
203.000000
 21
438.500000
  0
CIRCLE
  8
1
 62
7
  6
CONTINUOUS
 10
278.000000
 20
443.500000
 40
1.650000
  0
CIRCLE
  8
1
 62
7
  6
CONTINUOUS
 10
278.000000
 20
443.500000
 40
2.000000
  0
LINE
  8
1
 62
7
  6
DASHDOT
 10
283.000000
 20
443.500000
 11
273.000000
 21
443.500000
  0
LINE
  8
1
 62
7
  6
DASHDOT
 10
278.000000
 20
448.500000
 11
278.000000
 21
438.500000
  0
CIRCLE
  8
1
 62
7
  6
CONTINUOUS
 10
303.000000
 20
443.500000
 40
1.650000
  0
CIRCLE
  8
1
 62
7
  6
CONTINUOUS
 10
303.000000
 20
443.500000
 40
2.000000
  0
LINE
  8
1
 62
7
  6
DASHDOT
 10
308.000000
 20
443.500000
 11
298.000000
 21
443.500000
  0
LINE
  8
1
 62
7
  6
DASHDOT
 10
303.000000
 20
448.500000
 11
303.000000
 21
438.500000
  0
CIRCLE
  8
1
 62
7
  6
CONTINUOUS
 10
253.000000
 20
443.500000
 40
2.000000
  0
CIRCLE
  8
1
 62
7
  6
CONTINUOUS
 10
253.000000
 20
443.500000
 40
1.650000
  0
LINE
  8
1
 62
7
  6
DASHDOT
 10
248.000000
 20
443.500000
 11
258.000000
 21
443.500000
  0
CIRCLE
  8
1
 62
7
  6
CONTINUOUS
 10
196.000000
 20
488.500000
 40
4.000000
  0
CIRCLE
  8
1
 62
7
  6
CONTINUOUS
 10
196.000000
 20
488.500000
 40
3.500000
  0
LINE
  8
1
 62
7
  6
CONTINUOUS
 10
195.100000
 20
490.000000
 11
194.300000
 21
488.500000
  0
LINE
  8
1
 62
7
  6
CONTINUOUS
 10
194.300000
 20
488.500000
 11
195.100000
 21
487.000000
  0
LINE
  8
1
 62
7
  6
CONTINUOUS
 10
195.100000
 20
487.000000
 11
196.900000
 21
487.000000
  0
LINE
  8
1
 62
7
  6
CONTINUOUS
 10
196.900000
 20
487.000000
 11
197.700000
 21
488.500000
  0
LINE
  8
1
 62
7
  6
CONTINUOUS
 10
197.700000
 20
488.500000
 11
196.900000
 21
490.000000
  0
LINE
  8
1
 62
7
  6
CONTINUOUS
 10
196.900000
 20
490.000000
 11
195.100000
 21
490.000000
  0
CIRCLE
  8
1
 62
7
  6
CONTINUOUS
 10
196.000000
 20
488.500000
 40
3.000000
  0
LINE
  8
1
 62
7
  6
DASHDOT
 10
191.000000
 20
488.500000
 11
201.000000
 21
488.500000
  0
LINE
  8
1
 62
7
  6
DASHDOT
 10
196.000000
 20
483.500000
 11
196.000000
 21
493.500000
  0
CIRCLE
  8
1
 62
7
  6
CONTINUOUS
 10
196.000000
 20
448.500000
 40
4.000000
  0
CIRCLE
  8
1
 62
7
  6
CONTINUOUS
 10
196.000000
 20
448.500000
 40
3.500000
  0
LINE
  8
1
 62
7
  6
CONTINUOUS
 10
195.100000
 20
447.000000
 11
194.300000
 21
448.500000
  0
LINE
  8
1
 62
7
  6
CONTINUOUS
 10
194.300000
 20
448.500000
 11
195.100000
 21
450.000000
  0
LINE
  8
1
 62
7
  6
CONTINUOUS
 10
195.100000
 20
450.000000
 11
196.900000
 21
450.000000
  0
LINE
  8
1
 62
7
  6
CONTINUOUS
 10
196.900000
 20
450.000000
 11
197.700000
 21
448.500000
  0
LINE
  8
1
 62
7
  6
CONTINUOUS
 10
197.700000
 20
448.500000
 11
196.900000
 21
447.000000
  0
LINE
  8
1
 62
7
  6
CONTINUOUS
 10
196.900000
 20
447.000000
 11
195.100000
 21
447.000000
  0
CIRCLE
  8
1
 62
7
  6
CONTINUOUS
 10
196.000000
 20
448.500000
 40
3.000000
  0
LINE
  8
1
 62
7
  6
DASHDOT
 10
191.000000
 20
448.500000
 11
201.000000
 21
448.500000
  0
LINE
  8
1
 62
7
  6
DASHDOT
 10
196.000000
 20
453.500000
 11
196.000000
 21
443.500000
  0
CIRCLE
  8
1
 62
7
  6
CONTINUOUS
 10
310.000000
 20
488.500000
 40
4.000000
  0
CIRCLE
  8
1
 62
7
  6
CONTINUOUS
 10
310.000000
 20
488.500000
 40
3.500000
  0
LINE
  8
1
 62
7
  6
CONTINUOUS
 10
310.900000
 20
490.000000
 11
311.700000
 21
488.500000
  0
LINE
  8
1
 62
7
  6
CONTINUOUS
 10
311.700000
 20
488.500000
 11
310.900000
 21
487.000000
  0
LINE
  8
1
 62
7
  6
CONTINUOUS
 10
310.900000
 20
487.000000
 11
309.100000
 21
487.000000
  0
LINE
  8
1
 62
7
  6
CONTINUOUS
 10
309.100000
 20
487.000000
 11
308.300000
 21
488.500000
  0
LINE
  8
1
 62
7
  6
CONTINUOUS
 10
308.300000
 20
488.500000
 11
309.100000
 21
490.000000
  0
LINE
  8
1
 62
7
  6
CONTINUOUS
 10
309.100000
 20
490.000000
 11
310.900000
 21
490.000000
  0
CIRCLE
  8
1
 62
7
  6
CONTINUOUS
 10
310.000000
 20
488.500000
 40
3.000000
  0
LINE
  8
1
 62
7
  6
DASHDOT
 10
315.000000
 20
488.500000
 11
305.000000
 21
488.500000
  0
LINE
  8
1
 62
7
  6
DASHDOT
 10
310.000000
 20
483.500000
 11
310.000000
 21
493.500000
  0
CIRCLE
  8
1
 62
7
  6
CONTINUOUS
 10
310.000000
 20
448.500000
 40
4.000000
  0
CIRCLE
  8
1
 62
7
  6
CONTINUOUS
 10
310.000000
 20
448.500000
 40
3.500000
  0
LINE
  8
1
 62
7
  6
CONTINUOUS
 10
310.900000
 20
447.000000
 11
311.700000
 21
448.500000
  0
LINE
  8
1
 62
7
  6
CONTINUOUS
 10
311.700000
 20
448.500000
 11
310.900000
 21
450.000000
  0
LINE
  8
1
 62
7
  6
CONTINUOUS
 10
310.900000
 20
450.000000
 11
309.100000
 21
450.000000
  0
LINE
  8
1
 62
7
  6
CONTINUOUS
 10
309.100000
 20
450.000000
 11
308.300000
 21
448.500000
  0
LINE
  8
1
 62
7
  6
CONTINUOUS
 10
308.300000
 20
448.500000
 11
309.100000
 21
447.000000
  0
LINE
  8
1
 62
7
  6
CONTINUOUS
 10
309.100000
 20
447.000000
 11
310.900000
 21
447.000000
  0
CIRCLE
  8
1
 62
7
  6
CONTINUOUS
 10
310.000000
 20
448.500000
 40
3.000000
  0
LINE
  8
1
 62
7
  6
DASHDOT
 10
315.000000
 20
448.500000
 11
305.000000
 21
448.500000
  0
LINE
  8
1
 62
7
  6
DASHDOT
 10
310.000000
 20
453.500000
 11
310.000000
 21
443.500000
  0
LINE
  8
1
 62
7
  6
CONTINUOUS
 10
332.000000
 20
518.500000
 11
333.000000
 21
517.500000
  0
LINE
  8
1
 62
7
  6
CONTINUOUS
 10
333.000000
 20
517.500000
 11
333.000000
 21
419.500000
  0
LINE
  8
1
 62
7
  6
CONTINUOUS
 10
332.000000
 20
418.500000
 11
333.000000
 21
419.500000
  0
LINE
  8
1
 62
7
  6
CONTINUOUS
 10
174.000000
 20
418.500000
 11
332.000000
 21
418.500000
  0
LINE
  8
1
 62
7
  6
CONTINUOUS
 10
173.000000
 20
419.500000
 11
174.000000
 21
418.500000
  0
LINE
  8
1
 62
7
  6
CONTINUOUS
 10
332.000000
 20
518.500000
 11
174.000000
 21
518.500000
  0
LINE
  8
1
 62
7
  6
CONTINUOUS
 10
173.000000
 20
517.500000
 11
173.000000
 21
419.500000
  0
LINE
  8
1
 62
7
  6
CONTINUOUS
 10
174.000000
 20
518.500000
 11
173.000000
 21
517.500000
  0
LINE
  8
1
 62
7
  6
DASHDOT
 10
414.837667
 20
468.500000
 11
140.337667
 21
468.500000
  0
LINE
  8
1
 62
7
  6
CONTINUOUS
 10
382.437667
 20
479.500000
 11
391.837667
 21
479.500000
  0
LINE
  8
1
 62
7
  6
CONTINUOUS
 10
381.837667
 20
478.900000
 11
382.437667
 21
479.500000
  0
LINE
  8
1
 62
7
  6
CONTINUOUS
 10
391.837667
 20
457.500000
 11
382.437667
 21
457.500000
  0
LINE
  8
1
 62
7
  6
CONTINUOUS
 10
381.837667
 20
458.100000
 11
381.837667
 21
478.900000
  0
LINE
  8
1
 62
7
  6
CONTINUOUS
 10
382.437667
 20
457.500000
 11
381.837667
 21
458.100000
  0
LINE
  8
1
 62
7
  6
CONTINUOUS
 10
382.437667
 20
457.500000
 11
382.437667
 21
479.500000
  0
LINE
  8
1
 62
7
  6
CONTINUOUS
 10
391.837667
 20
439.500000
 11
392.837667
 21
438.500000
  0
LINE
  8
1
 62
7
  6
CONTINUOUS
 10
392.837667
 20
438.500000
 11
408.837667
 21
438.500000
  0
LINE
  8
1
 62
7
  6
CONTINUOUS
 10
409.837667
 20
439.500000
 11
408.837667
 21
438.500000
  0
LINE
  8
1
 62
7
  6
CONTINUOUS
 10
391.837667
 20
497.500000
 11
391.837667
 21
439.500000
  0
LINE
  8
1
 62
7
  6
CONTINUOUS
 10
392.837667
 20
498.500000
 11
391.837667
 21
497.500000
  0
LINE
  8
1
 62
7
  6
CONTINUOUS
 10
409.837667
 20
439.500000
 11
409.837667
 21
497.500000
  0
LINE
  8
1
 62
7
  6
CONTINUOUS
 10
408.837667
 20
498.500000
 11
392.837667
 21
498.500000
  0
LINE
  8
1
 62
7
  6
CONTINUOUS
 10
409.837667
 20
497.500000
 11
408.837667
 21
498.500000
  0
LINE
  8
1
 62
7
  6
CONTINUOUS
 10
408.837667
 20
438.500000
 11
408.837667
 21
498.500000
  0
LINE
  8
1
 62
7
  6
CONTINUOUS
 10
392.837667
 20
498.500000
 11
392.837667
 21
438.500000
  0
LINE
  8
1
 62
7
  6
CONTINUOUS
 10
407.837667
 20
438.500000
 11
407.837667
 21
498.500000
  0
LINE
  8
1
 62
7
  6
CONTINUOUS
 10
393.837667
 20
498.500000
 11
393.837667
 21
438.500000
  0
LINE
  8
1
 62
7
  6
CONTINUOUS
 10
397.104908
 20
487.634868
 11
393.837667
 21
487.634868
  0
LINE
  8
1
 62
7
  6
CONTINUOUS
 10
393.837667
 20
489.634868
 11
402.346288
 21
489.634868
  0
LINE
  8
1
 62
7
  6
CONTINUOUS
 10
407.587667
 20
491.634868
 11
393.837667
 21
491.634868
  0
LINE
  8
1
 62
7
  6
CONTINUOUS
 10
393.837667
 20
493.634868
 11
407.837667
 21
493.634868
  0
LINE
  8
1
 62
7
  6
CONTINUOUS
 10
407.837667
 20
495.634868
 11
393.837667
 21
495.634868
  0
LINE
  8
1
 62
7
  6
CONTINUOUS
 10
393.837667
 20
497.634868
 11
407.837667
 21
497.634868
  0
LINE
  8
1
 62
7
  6
CONTINUOUS
 10
405.837667
 20
498.500000
 11
405.837667
 21
490.967105
  0
LINE
  8
1
 62
7
  6
CONTINUOUS
 10
403.837667
 20
490.203947
 11
403.837667
 21
498.500000
  0
LINE
  8
1
 62
7
  6
CONTINUOUS
 10
401.837667
 20
498.500000
 11
401.837667
 21
489.440789
  0
LINE
  8
1
 62
7
  6
CONTINUOUS
 10
399.837667
 20
488.677632
 11
399.837667
 21
498.500000
  0
LINE
  8
1
 62
7
  6
CONTINUOUS
 10
397.837667
 20
498.500000
 11
397.837667
 21
487.914474
  0
LINE
  8
1
 62
7
  6
CONTINUOUS
 10
395.837667
 20
487.151316
 11
395.837667
 21
498.500000
  0
LINE
  8
1
 62
7
  6
CONTINUOUS
 10
404.570426
 20
449.365132
 11
407.837667
 21
449.365132
  0
LINE
  8
1
 62
7
  6
CONTINUOUS
 10
407.837667
 20
447.365132
 11
399.329046
 21
447.365132
  0
LINE
  8
1
 62
7
  6
CONTINUOUS
 10
394.087667
 20
445.365132
 11
407.837667
 21
445.365132
  0
LINE
  8
1
 62
7
  6
CONTINUOUS
 10
407.837667
 20
443.365132
 11
393.837667
 21
443.365132
  0
LINE
  8
1
 62
7
  6
CONTINUOUS
 10
393.837667
 20
441.365132
 11
407.837667
 21
441.365132
  0
LINE
  8
1
 62
7
  6
CONTINUOUS
 10
407.837667
 20
439.365132
 11
393.837667
 21
439.365132
  0
LINE
  8
1
 62
7
  6
CONTINUOUS
 10
395.837667
 20
438.500000
 11
395.837667
 21
446.032895
  0
LINE
  8
1
 62
7
  6
CONTINUOUS
 10
397.837667
 20
446.796053
 11
397.837667
 21
438.500000
  0
LINE
  8
1
 62
7
  6
CONTINUOUS
 10
399.837667
 20
438.500000
 11
399.837667
 21
447.559211
  0
LINE
  8
1
 62
7
  6
CONTINUOUS
 10
401.837667
 20
448.322368
 11
401.837667
 21
438.500000
  0
LINE
  8
1
 62
7
  6
CONTINUOUS
 10
403.837667
 20
438.500000
 11
403.837667
 21
449.085526
  0
LINE
  8
1
 62
7
  6
CONTINUOUS
 10
405.837667
 20
449.848684
 11
405.837667
 21
438.500000
  0
LINE
  8
1
 62
7
  6
CONTINUOUS
 10
342.662333
 20
473.500000
 11
333.000000
 21
473.500000
  0
LINE
  8
1
 62
7
  6
CONTINUOUS
 10
381.837667
 20
473.500000
 11
360.662333
 21
473.500000
  0
LINE
  8
1
 62
7
  6
CONTINUOUS
 10
381.837667
 20
463.500000
 11
360.662333
 21
463.500000
  0
LINE
  8
1
 62
7
  6
CONTINUOUS
 10
342.662333
 20
463.500000
 11
333.000000
 21
463.500000
  0
LINE
  8
1
 62
7
  6
CONTINUOUS
 10
360.662333
 20
463.500000
 11
360.662333
 21
448.500000
  0
LINE
  8
1
 62
7
  6
CONTINUOUS
 10
342.662333
 20
448.500000
 11
342.662333
 21
463.500000
  0
CIRCLE
  8
1
 62
7
  6
CONTINUOUS
 10
351.662333
 20
478.000000
 40
8.000000
  0
ARC
  8
1
 62
7
  6
CONTINUOUS
 10
371.441702
 20
499.644018
 40
0.181841
 50
138.540678
 51
-156.726380
  0
ARC
  8
1
 62
7
  6
CONTINUOUS
 10
372.291093
 20
499.805847
 40
1.042950
 50
-167.052728
 51
-147.646250
  0
ARC
  8
1
 62
7
  6
CONTINUOUS
 10
374.077335
 20
500.787131
 40
3.079644
 50
-150.008769
 51
-140.793892
  0
ARC
  8
1
 62
7
  6
CONTINUOUS
 10
375.627021
 20
501.982592
 40
5.036407
 50
-141.399562
 51
-134.855970
  0
ARC
  8
1
 62
7
  6
CONTINUOUS
 10
375.768570
 20
502.102626
 40
5.221358
 50
-135.028017
 51
-128.716451
  0
ARC
  8
1
 62
7
  6
CONTINUOUS
 10
374.668156
 20
500.732031
 40
3.463678
 50
-128.694333
 51
-120.503005
  0
ARC
  8
1
 62
7
  6
CONTINUOUS
 10
373.574022
 20
498.882398
 40
1.314671
 50
-120.334521
 51
-104.966501
  0
ARC
  8
1
 62
7
  6
CONTINUOUS
 10
373.295838
 20
497.845061
 40
0.240683
 50
-104.764100
 51
-57.050198
  0
ARC
  8
1
 62
7
  6
CONTINUOUS
 10
373.290470
 20
497.763487
 40
0.181841
 50
-41.459322
 51
23.273620
  0
ARC
  8
1
 62
7
  6
CONTINUOUS
 10
372.441079
 20
497.601659
 40
1.042950
 50
12.947272
 51
32.353750
  0
ARC
  8
1
 62
7
  6
CONTINUOUS
 10
370.654836
 20
496.620375
 40
3.079644
 50
29.991231
 51
39.206108
  0
ARC
  8
1
 62
7
  6
CONTINUOUS
 10
369.105151
 20
495.424913
 40
5.036407
 50
38.600438
 51
45.144030
  0
ARC
  8
1
 62
7
  6
CONTINUOUS
 10
368.963602
 20
495.304880
 40
5.221358
 50
44.971983
 51
51.283549
  0
ARC
  8
1
 62
7
  6
CONTINUOUS
 10
370.064016
 20
496.675475
 40
3.463678
 50
51.305667
 51
59.496995
  0
ARC
  8
1
 62
7
  6
CONTINUOUS
 10
371.158150
 20
498.525107
 40
1.314671
 50
59.665479
 51
75.033499
  0
ARC
  8
1
 62
7
  6
CONTINUOUS
 10
371.436334
 20
499.562445
 40
0.240683
 50
75.235900
 51
122.949802
  0
LINE
  8
1
 62
7
  6
CONTINUOUS
 10
373.521481
 20
496.452990
 11
373.464913
 21
497.768209
  0
LINE
  8
1
 62
7
  6
CONTINUOUS
 10
370.115323
 20
499.859148
 11
371.430542
 21
499.802580
  0
ARC
  8
1
 62
7
  6
CONTINUOUS
 10
370.093682
 20
499.613850
 40
0.244338
 50
84.498193
 51
156.755350
  0
ARC
  8
1
 62
7
  6
CONTINUOUS
 10
370.435373
 20
499.564749
 40
0.584600
 50
165.585125
 51
-151.253626
  0
ARC
  8
1
 62
7
  6
CONTINUOUS
 10
372.659551
 20
500.362138
 40
2.941589
 50
-158.490641
 51
-144.353401
  0
ARC
  8
1
 62
7
  6
CONTINUOUS
 10
375.901302
 20
502.479352
 40
6.811892
 50
-145.772810
 51
-137.854843
  0
ARC
  8
1
 62
7
  6
CONTINUOUS
 10
377.573111
 20
503.910778
 40
9.012156
 50
-138.239325
 51
-131.760675
  0
ARC
  8
1
 62
7
  6
CONTINUOUS
 10
376.499976
 20
502.694502
 40
7.390171
 50
-131.834930
 51
-124.537417
  0
ARC
  8
1
 62
7
  6
CONTINUOUS
 10
374.316045
 20
499.532491
 40
3.547284
 50
-124.434976
 51
-112.720982
  0
ARC
  8
1
 62
7
  6
CONTINUOUS
 10
373.256195
 20
497.004609
 40
0.806214
 50
-112.634066
 51
-81.697433
  0
ARC
  8
1
 62
7
  6
CONTINUOUS
 10
373.309082
 20
496.411872
 40
0.214645
 50
-72.783574
 51
11.530031
  0
LINE
  8
1
 62
7
  6
CONTINUOUS
 10
369.918419
 20
499.791619
 11
356.328449
 21
486.201650
  0
LINE
  8
1
 62
7
  6
CONTINUOUS
 10
359.863983
 20
482.666116
 11
373.453953
 21
496.256086
  0
ARC
  8
1
 62
7
  6
CONTINUOUS
 10
356.555576
 20
486.000992
 40
0.303068
 50
138.540678
 51
-156.726380
  0
ARC
  8
1
 62
7
  6
CONTINUOUS
 10
357.971228
 20
486.270706
 40
1.738251
 50
-167.052728
 51
-147.646250
  0
ARC
  8
1
 62
7
  6
CONTINUOUS
 10
360.948299
 20
487.906179
 40
5.132740
 50
-150.008769
 51
-140.793892
  0
ARC
  8
1
 62
7
  6
CONTINUOUS
 10
363.531108
 20
489.898616
 40
8.394012
 50
-141.399562
 51
-134.855970
  0
ARC
  8
1
 62
7
  6
CONTINUOUS
 10
363.767022
 20
490.098671
 40
8.702263
 50
-135.028017
 51
-128.716451
  0
ARC
  8
1
 62
7
  6
CONTINUOUS
 10
361.933000
 20
487.814346
 40
5.772797
 50
-128.694333
 51
-120.503005
  0
ARC
  8
1
 62
7
  6
CONTINUOUS
 10
360.109442
 20
484.731626
 40
2.191119
 50
-120.334521
 51
-104.966501
  0
ARC
  8
1
 62
7
  6
CONTINUOUS
 10
359.645803
 20
483.002730
 40
0.401138
 50
-104.764100
 51
-57.050198
  0
ARC
  8
1
 62
7
  6
CONTINUOUS
 10
351.662333
 20
478.000000
 40
10.000000
 50
59.477512
 51
30.522488
  0
LINE
  8
1
 62
7
  6
DASHDOT
 10
356.196371
 20
482.534038
 11
374.071678
 21
500.409345
  0
LINE
  8
1
 62
7
  6
DASHDOT
 10
339.662333
 20
478.000000
 11
363.662333
 21
478.000000
  0
LINE
  8
1
 62
7
  6
CONTINUOUS
 10
342.662333
 20
482.358899
 11
342.662333
 21
488.500000
  0
LINE
  8
1
 62
7
  6
CONTINUOUS
 10
342.662333
 20
473.500000
 11
342.662333
 21
473.641101
  0
ARC
  8
1
 62
7
  6
CONTINUOUS
 10
342.662264
 20
473.035788
 40
0.464212
 50
80.063848
 51
90.000000
  0
ARC
  8
1
 62
7
  6
CONTINUOUS
 10
333.816971
 20
469.182243
 40
10.322316
 50
5.641925
 51
14.881611
  0
ARC
  8
1
 62
7
  6
CONTINUOUS
 10
328.575300
 20
468.520168
 40
15.604345
 50
-0.755566
 51
6.169030
  0
ARC
  8
1
 62
7
  6
CONTINUOUS
 10
328.659683
 20
468.478574
 40
15.519473
 50
-7.478290
 51
-0.606126
  0
ARC
  8
1
 62
7
  6
CONTINUOUS
 10
333.992271
 20
467.786090
 40
10.142118
 50
-16.536113
 51
-7.520350
  0
ARC
  8
1
 62
7
  6
CONTINUOUS
 10
339.933728
 20
466.037500
 40
3.948741
 50
-33.413090
 51
-16.750661
  0
ARC
  8
1
 62
7
  6
CONTINUOUS
 10
342.525061
 20
464.339650
 40
0.850797
 50
-80.714981
 51
-34.069035
  0
ARC
  8
1
 62
7
  6
CONTINUOUS
 10
369.531941
 20
469.177656
 40
10.346958
 50
165.160807
 51
174.379151
  0
ARC
  8
1
 62
7
  6
CONTINUOUS
 10
374.758764
 20
468.519713
 40
15.613745
 50
173.854990
 51
-179.227996
  0
ARC
  8
1
 62
7
  6
CONTINUOUS
 10
374.657493
 20
468.478141
 40
15.511975
 50
-179.376495
 51
-172.506778
  0
ARC
  8
1
 62
7
  6
CONTINUOUS
 10
369.321307
 20
467.783840
 40
10.130818
 50
-172.464280
 51
-163.447826
  0
ARC
  8
1
 62
7
  6
CONTINUOUS
 10
363.386224
 20
466.035342
 40
3.943582
 50
-163.232873
 51
-146.566769
  0
ARC
  8
1
 62
7
  6
CONTINUOUS
 10
360.799332
 20
464.339152
 40
0.850261
 50
-145.908579
 51
-99.272208
  0
ARC
  8
1
 62
7
  6
CONTINUOUS
 10
360.662385
 20
473.036489
 40
0.463511
 50
90.000000
 51
99.018344
  0
LINE
  8
1
 62
7
  6
CONTINUOUS
 10
360.662333
 20
473.641101
 11
360.662333
 21
473.500000
  0
LINE
  8
1
 62
7
  6
CONTINUOUS
 10
360.662333
 20
483.464466
 11
360.662333
 21
482.358899
  0
LINE
  8
1
 62
7
  6
CONTINUOUS
 10
360.662333
 20
496.000000
 11
360.662333
 21
490.535534
  0
LINE
  8
1
 62
7
  6
CONTINUOUS
 10
360.162333
 20
490.035534
 11
360.162333
 21
495.884337
  0
ARC
  8
1
 62
7
  6
CONTINUOUS
 10
360.697039
 20
496.100959
 40
0.400548
 50
94.970677
 51
164.236714
  0
ARC
  8
1
 62
7
  6
CONTINUOUS
 10
362.838145
 20
494.826798
 40
2.880326
 50
151.305098
 51
168.902353
  0
ARC
  8
1
 62
7
  6
CONTINUOUS
 10
368.814823
 20
493.290143
 40
9.048088
 50
166.637822
 51
174.645178
  0
ARC
  8
1
 62
7
  6
CONTINUOUS
 10
375.080993
 20
492.554276
 40
15.356296
 50
174.093430
 51
179.640310
  0
ARC
  8
1
 62
7
  6
CONTINUOUS
 10
376.304061
 20
492.500161
 40
16.579745
 50
179.479841
 51
-175.311476
  0
ARC
  8
1
 62
7
  6
CONTINUOUS
 10
371.368363
 20
492.096419
 40
11.627562
 50
-175.306315
 51
-168.789517
  0
LINE
  8
1
 62
7
  6
CONTINUOUS
 10
176.837667
 20
289.146119
 11
176.837667
 21
286.853881
  0
LINE
  8
1
 62
7
  6
CONTINUOUS
 10
177.337667
 20
286.619856
 11
177.337667
 21
289.380144
  0
LINE
  8
1
 62
7
  6
DASHDOT
 10
89.399000
 20
333.500000
 11
89.399000
 21
242.500000
  0
LINE
  8
1
 62
7
  6
CONTINUOUS
 10
52.399000
 20
297.000000
 11
51.899000
 21
296.500000
  0
LINE
  8
1
 62
7
  6
CONTINUOUS
 10
52.399000
 20
279.000000
 11
51.899000
 21
279.500000
  0
LINE
  8
1
 62
7
  6
CONTINUOUS
 10
126.399000
 20
279.000000
 11
52.399000
 21
279.000000
  0
LINE
  8
1
 62
7
  6
CONTINUOUS
 10
52.399000
 20
297.000000
 11
126.399000
 21
297.000000
  0
LINE
  8
1
 62
7
  6
CONTINUOUS
 10
52.399000
 20
297.000000
 11
52.399000
 21
279.000000
  0
LINE
  8
1
 62
7
  6
CONTINUOUS
 10
51.899000
 20
296.500000
 11
48.899000
 21
296.500000
  0
LINE
  8
1
 62
7
  6
CONTINUOUS
 10
51.899000
 20
260.000000
 11
48.899000
 21
260.000000
  0
LINE
  8
1
 62
7
  6
CONTINUOUS
 10
48.899000
 20
296.500000
 11
48.899000
 21
260.000000
  0
LINE
  8
1
 62
7
  6
CONTINUOUS
 10
51.899000
 20
259.500000
 11
51.899000
 21
296.500000
  0
LINE
  8
1
 62
7
  6
CONTINUOUS
 10
51.899000
 20
278.000000
 11
52.399000
 21
278.500000
  0
LINE
  8
1
 62
7
  6
CONTINUOUS
 10
52.399000
 20
278.500000
 11
52.399000
 21
259.500000
  0
LINE
  8
1
 62
7
  6
CONTINUOUS
 10
126.399000
 20
278.500000
 11
52.399000
 21
278.500000
  0
LINE
  8
1
 62
7
  6
CONTINUOUS
 10
48.899000
 20
295.500000
 11
48.649000
 21
295.500000
  0
LINE
  8
1
 62
7
  6
CONTINUOUS
 10
48.649000
 20
280.500000
 11
48.899000
 21
280.500000
  0
LINE
  8
1
 62
7
  6
CONTINUOUS
 10
48.899000
 20
276.000000
 11
48.649000
 21
276.000000
  0
LINE
  8
1
 62
7
  6
CONTINUOUS
 10
48.649000
 20
261.000000
 11
48.899000
 21
261.000000
  0
LINE
  8
1
 62
7
  6
CONTINUOUS
 10
48.649000
 20
279.500000
 11
45.649000
 21
279.500000
  0
LINE
  8
1
 62
7
  6
CONTINUOUS
 10
48.649000
 20
316.000000
 11
48.649000
 21
279.500000
  0
LINE
  8
1
 62
7
  6
CONTINUOUS
 10
48.649000
 20
316.000000
 11
45.649000
 21
316.000000
  0
LINE
  8
1
 62
7
  6
CONTINUOUS
 10
45.649000
 20
279.500000
 11
45.649000
 21
316.000000
  0
LINE
  8
1
 62
7
  6
CONTINUOUS
 10
48.649000
 20
260.000000
 11
48.649000
 21
279.500000
  0
LINE
  8
1
 62
7
  6
CONTINUOUS
 10
48.649000
 20
260.000000
 11
45.649000
 21
260.000000
  0
LINE
  8
1
 62
7
  6
CONTINUOUS
 10
45.649000
 20
260.000000
 11
45.649000
 21
279.500000
  0
LINE
  8
1
 62
7
  6
CONTINUOUS
 10
51.899000
 20
298.000000
 11
52.399000
 21
297.500000
  0
LINE
  8
1
 62
7
  6
CONTINUOUS
 10
52.399000
 20
297.500000
 11
52.399000
 21
316.500000
  0
LINE
  8
1
 62
7
  6
CONTINUOUS
 10
126.399000
 20
297.500000
 11
52.399000
 21
297.500000
  0
LINE
  8
1
 62
7
  6
CONTINUOUS
 10
51.899000
 20
296.500000
 11
51.899000
 21
316.000000
  0
LINE
  8
1
 62
7
  6
CONTINUOUS
 10
48.899000
 20
296.500000
 11
48.899000
 21
316.000000
  0
LINE
  8
1
 62
7
  6
CONTINUOUS
 10
48.899000
 20
316.000000
 11
51.899000
 21
316.000000
  0
LINE
  8
1
 62
7
  6
CONTINUOUS
 10
48.899000
 20
315.000000
 11
48.649000
 21
315.000000
  0
LINE
  8
1
 62
7
  6
CONTINUOUS
 10
48.649000
 20
300.000000
 11
48.899000
 21
300.000000
  0
LINE
  8
1
 62
7
  6
CONTINUOUS
 10
45.649000
 20
316.000000
 11
44.649000
 21
316.000000
  0
LINE
  8
1
 62
7
  6
CONTINUOUS
 10
44.649000
 20
316.000000
 11
44.649000
 21
299.000000
  0
LINE
  8
1
 62
7
  6
CONTINUOUS
 10
44.649000
 20
299.000000
 11
45.649000
 21
299.000000
  0
LINE
  8
1
 62
7
  6
CONTINUOUS
 10
44.649000
 20
316.000000
 11
42.149000
 21
316.000000
  0
LINE
  8
1
 62
7
  6
CONTINUOUS
 10
42.149000
 20
316.000000
 11
41.649000
 21
315.500000
  0
LINE
  8
1
 62
7
  6
CONTINUOUS
 10
42.149000
 20
299.000000
 11
44.649000
 21
299.000000
  0
LINE
  8
1
 62
7
  6
CONTINUOUS
 10
41.649000
 20
315.500000
 11
41.649000
 21
299.500000
  0
LINE
  8
1
 62
7
  6
CONTINUOUS
 10
42.149000
 20
299.000000
 11
41.649000
 21
299.500000
  0
LINE
  8
1
 62
7
  6
CONTINUOUS
 10
42.149000
 20
316.000000
 11
42.149000
 21
299.000000
  0
LINE
  8
1
 62
7
  6
CONTINUOUS
 10
45.649000
 20
277.000000
 11
44.649000
 21
277.000000
  0
LINE
  8
1
 62
7
  6
CONTINUOUS
 10
44.649000
 20
277.000000
 11
44.649000
 21
260.000000
  0
LINE
  8
1
 62
7
  6
CONTINUOUS
 10
44.649000
 20
260.000000
 11
45.649000
 21
260.000000
  0
LINE
  8
1
 62
7
  6
CONTINUOUS
 10
44.649000
 20
277.000000
 11
42.149000
 21
277.000000
  0
LINE
  8
1
 62
7
  6
CONTINUOUS
 10
42.149000
 20
277.000000
 11
41.649000
 21
276.500000
  0
LINE
  8
1
 62
7
  6
CONTINUOUS
 10
42.149000
 20
260.000000
 11
44.649000
 21
260.000000
  0
LINE
  8
1
 62
7
  6
CONTINUOUS
 10
41.649000
 20
276.500000
 11
41.649000
 21
260.500000
  0
LINE
  8
1
 62
7
  6
CONTINUOUS
 10
42.149000
 20
260.000000
 11
41.649000
 21
260.500000
  0
LINE
  8
1
 62
7
  6
CONTINUOUS
 10
42.149000
 20
277.000000
 11
42.149000
 21
260.000000
  0
LINE
  8
1
 62
7
  6
CONTINUOUS
 10
45.649000
 20
296.500000
 11
44.649000
 21
296.500000
  0
LINE
  8
1
 62
7
  6
CONTINUOUS
 10
44.649000
 20
296.500000
 11
44.649000
 21
279.500000
  0
LINE
  8
1
 62
7
  6
CONTINUOUS
 10
44.649000
 20
279.500000
 11
45.649000
 21
279.500000
  0
LINE
  8
1
 62
7
  6
CONTINUOUS
 10
44.649000
 20
296.500000
 11
42.149000
 21
296.500000
  0
LINE
  8
1
 62
7
  6
CONTINUOUS
 10
42.149000
 20
296.500000
 11
41.649000
 21
296.000000
  0
LINE
  8
1
 62
7
  6
CONTINUOUS
 10
42.149000
 20
279.500000
 11
44.649000
 21
279.500000
  0
LINE
  8
1
 62
7
  6
CONTINUOUS
 10
41.649000
 20
296.000000
 11
41.649000
 21
280.000000
  0
LINE
  8
1
 62
7
  6
CONTINUOUS
 10
42.149000
 20
279.500000
 11
41.649000
 21
280.000000
  0
LINE
  8
1
 62
7
  6
CONTINUOUS
 10
42.149000
 20
296.500000
 11
42.149000
 21
279.500000
  0
LINE
  8
1
 62
7
  6
CONTINUOUS
 10
126.399000
 20
297.000000
 11
126.899000
 21
296.500000
  0
LINE
  8
1
 62
7
  6
CONTINUOUS
 10
126.399000
 20
279.000000
 11
126.899000
 21
279.500000
  0
LINE
  8
1
 62
7
  6
CONTINUOUS
 10
126.399000
 20
297.000000
 11
126.399000
 21
279.000000
  0
LINE
  8
1
 62
7
  6
CONTINUOUS
 10
126.899000
 20
296.500000
 11
129.899000
 21
296.500000
  0
LINE
  8
1
 62
7
  6
CONTINUOUS
 10
126.899000
 20
260.000000
 11
129.899000
 21
260.000000
  0
LINE
  8
1
 62
7
  6
CONTINUOUS
 10
129.899000
 20
296.500000
 11
129.899000
 21
260.000000
  0
LINE
  8
1
 62
7
  6
CONTINUOUS
 10
126.899000
 20
259.500000
 11
126.899000
 21
296.500000
  0
LINE
  8
1
 62
7
  6
CONTINUOUS
 10
126.899000
 20
278.000000
 11
126.399000
 21
278.500000
  0
LINE
  8
1
 62
7
  6
CONTINUOUS
 10
126.399000
 20
278.500000
 11
126.399000
 21
259.500000
  0
LINE
  8
1
 62
7
  6
CONTINUOUS
 10
129.899000
 20
295.500000
 11
130.149000
 21
295.500000
  0
LINE
  8
1
 62
7
  6
CONTINUOUS
 10
130.149000
 20
280.500000
 11
129.899000
 21
280.500000
  0
LINE
  8
1
 62
7
  6
CONTINUOUS
 10
129.899000
 20
276.000000
 11
130.149000
 21
276.000000
  0
LINE
  8
1
 62
7
  6
CONTINUOUS
 10
130.149000
 20
261.000000
 11
129.899000
 21
261.000000
  0
LINE
  8
1
 62
7
  6
CONTINUOUS
 10
130.149000
 20
279.500000
 11
133.149000
 21
279.500000
  0
LINE
  8
1
 62
7
  6
CONTINUOUS
 10
130.149000
 20
316.000000
 11
130.149000
 21
279.500000
  0
LINE
  8
1
 62
7
  6
CONTINUOUS
 10
130.149000
 20
316.000000
 11
133.149000
 21
316.000000
  0
LINE
  8
1
 62
7
  6
CONTINUOUS
 10
133.149000
 20
279.500000
 11
133.149000
 21
316.000000
  0
LINE
  8
1
 62
7
  6
CONTINUOUS
 10
130.149000
 20
260.000000
 11
130.149000
 21
279.500000
  0
LINE
  8
1
 62
7
  6
CONTINUOUS
 10
130.149000
 20
260.000000
 11
133.149000
 21
260.000000
  0
LINE
  8
1
 62
7
  6
CONTINUOUS
 10
133.149000
 20
260.000000
 11
133.149000
 21
279.500000
  0
LINE
  8
1
 62
7
  6
CONTINUOUS
 10
126.899000
 20
298.000000
 11
126.399000
 21
297.500000
  0
LINE
  8
1
 62
7
  6
CONTINUOUS
 10
126.399000
 20
297.500000
 11
126.399000
 21
316.500000
  0
LINE
  8
1
 62
7
  6
CONTINUOUS
 10
126.899000
 20
296.500000
 11
126.899000
 21
316.000000
  0
LINE
  8
1
 62
7
  6
CONTINUOUS
 10
129.899000
 20
296.500000
 11
129.899000
 21
316.000000
  0
LINE
  8
1
 62
7
  6
CONTINUOUS
 10
129.899000
 20
316.000000
 11
126.899000
 21
316.000000
  0
LINE
  8
1
 62
7
  6
CONTINUOUS
 10
129.899000
 20
315.000000
 11
130.149000
 21
315.000000
  0
LINE
  8
1
 62
7
  6
CONTINUOUS
 10
130.149000
 20
300.000000
 11
129.899000
 21
300.000000
  0
LINE
  8
1
 62
7
  6
CONTINUOUS
 10
133.149000
 20
316.000000
 11
134.149000
 21
316.000000
  0
LINE
  8
1
 62
7
  6
CONTINUOUS
 10
134.149000
 20
316.000000
 11
134.149000
 21
299.000000
  0
LINE
  8
1
 62
7
  6
CONTINUOUS
 10
134.149000
 20
299.000000
 11
133.149000
 21
299.000000
  0
LINE
  8
1
 62
7
  6
CONTINUOUS
 10
134.149000
 20
316.000000
 11
136.649000
 21
316.000000
  0
LINE
  8
1
 62
7
  6
CONTINUOUS
 10
136.649000
 20
316.000000
 11
137.149000
 21
315.500000
  0
LINE
  8
1
 62
7
  6
CONTINUOUS
 10
136.649000
 20
299.000000
 11
134.149000
 21
299.000000
  0
LINE
  8
1
 62
7
  6
CONTINUOUS
 10
137.149000
 20
315.500000
 11
137.149000
 21
299.500000
  0
LINE
  8
1
 62
7
  6
CONTINUOUS
 10
136.649000
 20
299.000000
 11
137.149000
 21
299.500000
  0
LINE
  8
1
 62
7
  6
CONTINUOUS
 10
136.649000
 20
316.000000
 11
136.649000
 21
299.000000
  0
LINE
  8
1
 62
7
  6
CONTINUOUS
 10
133.149000
 20
277.000000
 11
134.149000
 21
277.000000
  0
LINE
  8
1
 62
7
  6
CONTINUOUS
 10
134.149000
 20
277.000000
 11
134.149000
 21
260.000000
  0
LINE
  8
1
 62
7
  6
CONTINUOUS
 10
134.149000
 20
260.000000
 11
133.149000
 21
260.000000
  0
LINE
  8
1
 62
7
  6
CONTINUOUS
 10
134.149000
 20
277.000000
 11
136.649000
 21
277.000000
  0
LINE
  8
1
 62
7
  6
CONTINUOUS
 10
136.649000
 20
277.000000
 11
137.149000
 21
276.500000
  0
LINE
  8
1
 62
7
  6
CONTINUOUS
 10
136.649000
 20
260.000000
 11
134.149000
 21
260.000000
  0
LINE
  8
1
 62
7
  6
CONTINUOUS
 10
137.149000
 20
276.500000
 11
137.149000
 21
260.500000
  0
LINE
  8
1
 62
7
  6
CONTINUOUS
 10
136.649000
 20
260.000000
 11
137.149000
 21
260.500000
  0
LINE
  8
1
 62
7
  6
CONTINUOUS
 10
136.649000
 20
277.000000
 11
136.649000
 21
260.000000
  0
LINE
  8
1
 62
7
  6
CONTINUOUS
 10
133.149000
 20
296.500000
 11
134.149000
 21
296.500000
  0
LINE
  8
1
 62
7
  6
CONTINUOUS
 10
134.149000
 20
296.500000
 11
134.149000
 21
279.500000
  0
LINE
  8
1
 62
7
  6
CONTINUOUS
 10
134.149000
 20
279.500000
 11
133.149000
 21
279.500000
  0
LINE
  8
1
 62
7
  6
CONTINUOUS
 10
134.149000
 20
296.500000
 11
136.649000
 21
296.500000
  0
LINE
  8
1
 62
7
  6
CONTINUOUS
 10
136.649000
 20
296.500000
 11
137.149000
 21
296.000000
  0
LINE
  8
1
 62
7
  6
CONTINUOUS
 10
136.649000
 20
279.500000
 11
134.149000
 21
279.500000
  0
LINE
  8
1
 62
7
  6
CONTINUOUS
 10
137.149000
 20
296.000000
 11
137.149000
 21
280.000000
  0
LINE
  8
1
 62
7
  6
CONTINUOUS
 10
136.649000
 20
279.500000
 11
137.149000
 21
280.000000
  0
LINE
  8
1
 62
7
  6
CONTINUOUS
 10
136.649000
 20
296.500000
 11
136.649000
 21
279.500000
  0
LINE
  8
1
 62
7
  6
DASHDOT
 10
140.149000
 20
307.500000
 11
38.649000
 21
307.500000
  0
LINE
  8
1
 62
7
  6
DASHDOT
 10
140.149000
 20
268.500000
 11
38.649000
 21
268.500000
  0
LINE
  8
1
 62
7
  6
DASHDOT
 10
36.649000
 20
288.000000
 11
142.149000
 21
288.000000
  0
LINE
  8
1
 62
7
  6
CONTINUOUS
 10
138.899000
 20
328.500000
 11
139.399000
 21
328.000000
  0
LINE
  8
1
 62
7
  6
CONTINUOUS
 10
139.399000
 20
317.000000
 11
139.399000
 21
328.000000
  0
LINE
  8
1
 62
7
  6
CONTINUOUS
 10
138.899000
 20
316.500000
 11
139.399000
 21
317.000000
  0
LINE
  8
1
 62
7
  6
CONTINUOUS
 10
138.899000
 20
328.500000
 11
39.899000
 21
328.500000
  0
LINE
  8
1
 62
7
  6
CONTINUOUS
 10
39.399000
 20
328.000000
 11
39.899000
 21
328.500000
  0
LINE
  8
1
 62
7
  6
CONTINUOUS
 10
39.899000
 20
316.500000
 11
138.899000
 21
316.500000
  0
LINE
  8
1
 62
7
  6
CONTINUOUS
 10
39.399000
 20
328.000000
 11
39.399000
 21
317.000000
  0
LINE
  8
1
 62
7
  6
CONTINUOUS
 10
39.899000
 20
316.500000
 11
39.399000
 21
317.000000
  0
LINE
  8
1
 62
7
  6
CONTINUOUS
 10
39.899000
 20
259.500000
 11
39.399000
 21
259.000000
  0
LINE
  8
1
 62
7
  6
CONTINUOUS
 10
39.399000
 20
259.000000
 11
39.399000
 21
248.000000
  0
LINE
  8
1
 62
7
  6
CONTINUOUS
 10
39.899000
 20
247.500000
 11
39.399000
 21
248.000000
  0
LINE
  8
1
 62
7
  6
CONTINUOUS
 10
138.899000
 20
247.500000
 11
39.899000
 21
247.500000
  0
LINE
  8
1
 62
7
  6
CONTINUOUS
 10
139.399000
 20
248.000000
 11
138.899000
 21
247.500000
  0
LINE
  8
1
 62
7
  6
CONTINUOUS
 10
138.899000
 20
259.500000
 11
39.899000
 21
259.500000
  0
LINE
  8
1
 62
7
  6
CONTINUOUS
 10
139.399000
 20
248.000000
 11
139.399000
 21
259.000000
  0
LINE
  8
1
 62
7
  6
CONTINUOUS
 10
138.899000
 20
259.500000
 11
139.399000
 21
259.000000
  0
CIRCLE
  8
1
 62
7
  6
CONTINUOUS
 10
75.399000
 20
288.000000
 40
4.000000
  0
LINE
  8
1
 62
7
  6
DASHDOT
 10
75.399000
 20
283.000000
 11
75.399000
 21
293.000000
  0
CIRCLE
  8
1
 62
7
  6
CONTINUOUS
 10
103.399000
 20
288.000000
 40
4.000000
  0
LINE
  8
1
 62
7
  6
DASHDOT
 10
103.399000
 20
283.000000
 11
103.399000
 21
293.000000
  0
CIRCLE
  8
1
 62
7
  6
CONTINUOUS
 10
75.399000
 20
288.000000
 40
3.500000
  0
CIRCLE
  8
1
 62
7
  6
CONTINUOUS
 10
103.399000
 20
288.000000
 40
3.500000
  0
CIRCLE
  8
1
 62
7
  6
CONTINUOUS
 10
123.399000
 20
307.500000
 40
2.000000
  0
CIRCLE
  8
1
 62
7
  6
CONTINUOUS
 10
123.399000
 20
307.500000
 40
1.650000
  0
LINE
  8
1
 62
7
  6
DASHDOT
 10
123.399000
 20
304.500000
 11
123.399000
 21
310.500000
  0
CIRCLE
  8
1
 62
7
  6
CONTINUOUS
 10
123.399000
 20
307.500000
 40
1.500000
  0
LINE
  8
1
 62
7
  6
CONTINUOUS
 10
122.799000
 20
308.500000
 11
122.199000
 21
307.500000
  0
LINE
  8
1
 62
7
  6
CONTINUOUS
 10
122.199000
 20
307.500000
 11
122.799000
 21
306.500000
  0
LINE
  8
1
 62
7
  6
CONTINUOUS
 10
122.799000
 20
306.500000
 11
123.999000
 21
306.500000
  0
LINE
  8
1
 62
7
  6
CONTINUOUS
 10
123.999000
 20
306.500000
 11
124.599000
 21
307.500000
  0
LINE
  8
1
 62
7
  6
CONTINUOUS
 10
124.599000
 20
307.500000
 11
123.999000
 21
308.500000
  0
LINE
  8
1
 62
7
  6
CONTINUOUS
 10
123.999000
 20
308.500000
 11
122.799000
 21
308.500000
  0
CIRCLE
  8
1
 62
7
  6
CONTINUOUS
 10
123.399000
 20
268.500000
 40
2.000000
  0
CIRCLE
  8
1
 62
7
  6
CONTINUOUS
 10
123.399000
 20
268.500000
 40
1.650000
  0
LINE
  8
1
 62
7
  6
DASHDOT
 10
123.399000
 20
271.500000
 11
123.399000
 21
265.500000
  0
CIRCLE
  8
1
 62
7
  6
CONTINUOUS
 10
123.399000
 20
268.500000
 40
1.500000
  0
LINE
  8
1
 62
7
  6
CONTINUOUS
 10
122.799000
 20
267.500000
 11
122.199000
 21
268.500000
  0
LINE
  8
1
 62
7
  6
CONTINUOUS
 10
122.199000
 20
268.500000
 11
122.799000
 21
269.500000
  0
LINE
  8
1
 62
7
  6
CONTINUOUS
 10
122.799000
 20
269.500000
 11
123.999000
 21
269.500000
  0
LINE
  8
1
 62
7
  6
CONTINUOUS
 10
123.999000
 20
269.500000
 11
124.599000
 21
268.500000
  0
LINE
  8
1
 62
7
  6
CONTINUOUS
 10
124.599000
 20
268.500000
 11
123.999000
 21
267.500000
  0
LINE
  8
1
 62
7
  6
CONTINUOUS
 10
123.999000
 20
267.500000
 11
122.799000
 21
267.500000
  0
CIRCLE
  8
1
 62
7
  6
CONTINUOUS
 10
55.399000
 20
268.500000
 40
2.000000
  0
CIRCLE
  8
1
 62
7
  6
CONTINUOUS
 10
55.399000
 20
268.500000
 40
1.650000
  0
LINE
  8
1
 62
7
  6
DASHDOT
 10
55.399000
 20
271.500000
 11
55.399000
 21
265.500000
  0
CIRCLE
  8
1
 62
7
  6
CONTINUOUS
 10
55.399000
 20
268.500000
 40
1.500000
  0
LINE
  8
1
 62
7
  6
CONTINUOUS
 10
55.999000
 20
267.500000
 11
56.599000
 21
268.500000
  0
LINE
  8
1
 62
7
  6
CONTINUOUS
 10
56.599000
 20
268.500000
 11
55.999000
 21
269.500000
  0
LINE
  8
1
 62
7
  6
CONTINUOUS
 10
55.999000
 20
269.500000
 11
54.799000
 21
269.500000
  0
LINE
  8
1
 62
7
  6
CONTINUOUS
 10
54.799000
 20
269.500000
 11
54.199000
 21
268.500000
  0
LINE
  8
1
 62
7
  6
CONTINUOUS
 10
54.199000
 20
268.500000
 11
54.799000
 21
267.500000
  0
LINE
  8
1
 62
7
  6
CONTINUOUS
 10
54.799000
 20
267.500000
 11
55.999000
 21
267.500000
  0
CIRCLE
  8
1
 62
7
  6
CONTINUOUS
 10
55.399000
 20
307.500000
 40
2.000000
  0
CIRCLE
  8
1
 62
7
  6
CONTINUOUS
 10
55.399000
 20
307.500000
 40
1.650000
  0
LINE
  8
1
 62
7
  6
DASHDOT
 10
55.399000
 20
304.500000
 11
55.399000
 21
310.500000
  0
CIRCLE
  8
1
 62
7
  6
CONTINUOUS
 10
55.399000
 20
307.500000
 40
1.500000
  0
LINE
  8
1
 62
7
  6
CONTINUOUS
 10
55.999000
 20
308.500000
 11
56.599000
 21
307.500000
  0
LINE
  8
1
 62
7
  6
CONTINUOUS
 10
56.599000
 20
307.500000
 11
55.999000
 21
306.500000
  0
LINE
  8
1
 62
7
  6
CONTINUOUS
 10
55.999000
 20
306.500000
 11
54.799000
 21
306.500000
  0
LINE
  8
1
 62
7
  6
CONTINUOUS
 10
54.799000
 20
306.500000
 11
54.199000
 21
307.500000
  0
LINE
  8
1
 62
7
  6
CONTINUOUS
 10
54.199000
 20
307.500000
 11
54.799000
 21
308.500000
  0
LINE
  8
1
 62
7
  6
CONTINUOUS
 10
54.799000
 20
308.500000
 11
55.999000
 21
308.500000
  0
LINE
  8
1
 62
7
  6
DASHDOT
 10
485.717000
 20
333.500000
 11
485.717000
 21
242.500000
  0
LINE
  8
1
 62
7
  6
CONTINUOUS
 10
522.717000
 20
297.000000
 11
523.217000
 21
296.500000
  0
LINE
  8
1
 62
7
  6
CONTINUOUS
 10
522.717000
 20
279.000000
 11
523.217000
 21
279.500000
  0
LINE
  8
1
 62
7
  6
CONTINUOUS
 10
522.717000
 20
297.000000
 11
522.717000
 21
279.000000
  0
LINE
  8
1
 62
7
  6
CONTINUOUS
 10
523.217000
 20
296.500000
 11
526.217000
 21
296.500000
  0
LINE
  8
1
 62
7
  6
CONTINUOUS
 10
523.217000
 20
260.000000
 11
526.217000
 21
260.000000
  0
LINE
  8
1
 62
7
  6
CONTINUOUS
 10
526.217000
 20
296.500000
 11
526.217000
 21
260.000000
  0
LINE
  8
1
 62
7
  6
CONTINUOUS
 10
523.217000
 20
259.500000
 11
523.217000
 21
296.500000
  0
LINE
  8
1
 62
7
  6
CONTINUOUS
 10
523.217000
 20
278.000000
 11
522.717000
 21
278.500000
  0
LINE
  8
1
 62
7
  6
CONTINUOUS
 10
522.717000
 20
278.500000
 11
522.717000
 21
259.500000
  0
LINE
  8
1
 62
7
  6
CONTINUOUS
 10
526.217000
 20
295.500000
 11
526.467000
 21
295.500000
  0
LINE
  8
1
 62
7
  6
CONTINUOUS
 10
526.467000
 20
280.500000
 11
526.217000
 21
280.500000
  0
LINE
  8
1
 62
7
  6
CONTINUOUS
 10
526.217000
 20
276.000000
 11
526.467000
 21
276.000000
  0
LINE
  8
1
 62
7
  6
CONTINUOUS
 10
526.467000
 20
261.000000
 11
526.217000
 21
261.000000
  0
LINE
  8
1
 62
7
  6
CONTINUOUS
 10
526.467000
 20
279.500000
 11
529.467000
 21
279.500000
  0
LINE
  8
1
 62
7
  6
CONTINUOUS
 10
526.467000
 20
316.000000
 11
526.467000
 21
279.500000
  0
LINE
  8
1
 62
7
  6
CONTINUOUS
 10
526.467000
 20
316.000000
 11
529.467000
 21
316.000000
  0
LINE
  8
1
 62
7
  6
CONTINUOUS
 10
529.467000
 20
279.500000
 11
529.467000
 21
316.000000
  0
LINE
  8
1
 62
7
  6
CONTINUOUS
 10
526.467000
 20
260.000000
 11
526.467000
 21
279.500000
  0
LINE
  8
1
 62
7
  6
CONTINUOUS
 10
526.467000
 20
260.000000
 11
529.467000
 21
260.000000
  0
LINE
  8
1
 62
7
  6
CONTINUOUS
 10
529.467000
 20
260.000000
 11
529.467000
 21
279.500000
  0
LINE
  8
1
 62
7
  6
CONTINUOUS
 10
523.217000
 20
298.000000
 11
522.717000
 21
297.500000
  0
LINE
  8
1
 62
7
  6
CONTINUOUS
 10
522.717000
 20
297.500000
 11
522.717000
 21
316.500000
  0
LINE
  8
1
 62
7
  6
CONTINUOUS
 10
523.217000
 20
296.500000
 11
523.217000
 21
316.000000
  0
LINE
  8
1
 62
7
  6
CONTINUOUS
 10
526.217000
 20
296.500000
 11
526.217000
 21
316.000000
  0
LINE
  8
1
 62
7
  6
CONTINUOUS
 10
526.217000
 20
316.000000
 11
523.217000
 21
316.000000
  0
LINE
  8
1
 62
7
  6
CONTINUOUS
 10
526.217000
 20
315.000000
 11
526.467000
 21
315.000000
  0
LINE
  8
1
 62
7
  6
CONTINUOUS
 10
526.467000
 20
300.000000
 11
526.217000
 21
300.000000
  0
LINE
  8
1
 62
7
  6
CONTINUOUS
 10
529.467000
 20
316.000000
 11
530.467000
 21
316.000000
  0
LINE
  8
1
 62
7
  6
CONTINUOUS
 10
530.467000
 20
316.000000
 11
530.467000
 21
299.000000
  0
LINE
  8
1
 62
7
  6
CONTINUOUS
 10
530.467000
 20
299.000000
 11
529.467000
 21
299.000000
  0
LINE
  8
1
 62
7
  6
CONTINUOUS
 10
530.467000
 20
316.000000
 11
532.967000
 21
316.000000
  0
LINE
  8
1
 62
7
  6
CONTINUOUS
 10
532.967000
 20
316.000000
 11
533.467000
 21
315.500000
  0
LINE
  8
1
 62
7
  6
CONTINUOUS
 10
532.967000
 20
299.000000
 11
530.467000
 21
299.000000
  0
LINE
  8
1
 62
7
  6
CONTINUOUS
 10
533.467000
 20
315.500000
 11
533.467000
 21
299.500000
  0
LINE
  8
1
 62
7
  6
CONTINUOUS
 10
532.967000
 20
299.000000
 11
533.467000
 21
299.500000
  0
LINE
  8
1
 62
7
  6
CONTINUOUS
 10
532.967000
 20
316.000000
 11
532.967000
 21
299.000000
  0
LINE
  8
1
 62
7
  6
CONTINUOUS
 10
529.467000
 20
277.000000
 11
530.467000
 21
277.000000
  0
LINE
  8
1
 62
7
  6
CONTINUOUS
 10
530.467000
 20
277.000000
 11
530.467000
 21
260.000000
  0
LINE
  8
1
 62
7
  6
CONTINUOUS
 10
530.467000
 20
260.000000
 11
529.467000
 21
260.000000
  0
LINE
  8
1
 62
7
  6
CONTINUOUS
 10
530.467000
 20
277.000000
 11
532.967000
 21
277.000000
  0
LINE
  8
1
 62
7
  6
CONTINUOUS
 10
532.967000
 20
277.000000
 11
533.467000
 21
276.500000
  0
LINE
  8
1
 62
7
  6
CONTINUOUS
 10
532.967000
 20
260.000000
 11
530.467000
 21
260.000000
  0
LINE
  8
1
 62
7
  6
CONTINUOUS
 10
533.467000
 20
276.500000
 11
533.467000
 21
260.500000
  0
LINE
  8
1
 62
7
  6
CONTINUOUS
 10
532.967000
 20
260.000000
 11
533.467000
 21
260.500000
  0
LINE
  8
1
 62
7
  6
CONTINUOUS
 10
532.967000
 20
277.000000
 11
532.967000
 21
260.000000
  0
LINE
  8
1
 62
7
  6
CONTINUOUS
 10
529.467000
 20
296.500000
 11
530.467000
 21
296.500000
  0
LINE
  8
1
 62
7
  6
CONTINUOUS
 10
530.467000
 20
296.500000
 11
530.467000
 21
279.500000
  0
LINE
  8
1
 62
7
  6
CONTINUOUS
 10
530.467000
 20
279.500000
 11
529.467000
 21
279.500000
  0
LINE
  8
1
 62
7
  6
CONTINUOUS
 10
530.467000
 20
296.500000
 11
532.967000
 21
296.500000
  0
LINE
  8
1
 62
7
  6
CONTINUOUS
 10
532.967000
 20
296.500000
 11
533.467000
 21
296.000000
  0
LINE
  8
1
 62
7
  6
CONTINUOUS
 10
532.967000
 20
279.500000
 11
530.467000
 21
279.500000
  0
LINE
  8
1
 62
7
  6
CONTINUOUS
 10
533.467000
 20
296.000000
 11
533.467000
 21
280.000000
  0
LINE
  8
1
 62
7
  6
CONTINUOUS
 10
532.967000
 20
279.500000
 11
533.467000
 21
280.000000
  0
LINE
  8
1
 62
7
  6
CONTINUOUS
 10
532.967000
 20
296.500000
 11
532.967000
 21
279.500000
  0
LINE
  8
1
 62
7
  6
CONTINUOUS
 10
448.717000
 20
297.000000
 11
448.217000
 21
296.500000
  0
LINE
  8
1
 62
7
  6
CONTINUOUS
 10
448.717000
 20
279.000000
 11
448.217000
 21
279.500000
  0
LINE
  8
1
 62
7
  6
CONTINUOUS
 10
448.717000
 20
297.000000
 11
448.717000
 21
279.000000
  0
LINE
  8
1
 62
7
  6
CONTINUOUS
 10
448.217000
 20
296.500000
 11
445.217000
 21
296.500000
  0
LINE
  8
1
 62
7
  6
CONTINUOUS
 10
448.217000
 20
260.000000
 11
445.217000
 21
260.000000
  0
LINE
  8
1
 62
7
  6
CONTINUOUS
 10
445.217000
 20
296.500000
 11
445.217000
 21
260.000000
  0
LINE
  8
1
 62
7
  6
CONTINUOUS
 10
448.217000
 20
259.500000
 11
448.217000
 21
296.500000
  0
LINE
  8
1
 62
7
  6
CONTINUOUS
 10
448.217000
 20
278.000000
 11
448.717000
 21
278.500000
  0
LINE
  8
1
 62
7
  6
CONTINUOUS
 10
448.717000
 20
278.500000
 11
448.717000
 21
259.500000
  0
LINE
  8
1
 62
7
  6
CONTINUOUS
 10
445.217000
 20
295.500000
 11
444.967000
 21
295.500000
  0
LINE
  8
1
 62
7
  6
CONTINUOUS
 10
444.967000
 20
280.500000
 11
445.217000
 21
280.500000
  0
LINE
  8
1
 62
7
  6
CONTINUOUS
 10
445.217000
 20
276.000000
 11
444.967000
 21
276.000000
  0
LINE
  8
1
 62
7
  6
CONTINUOUS
 10
444.967000
 20
261.000000
 11
445.217000
 21
261.000000
  0
LINE
  8
1
 62
7
  6
CONTINUOUS
 10
444.967000
 20
279.500000
 11
441.967000
 21
279.500000
  0
LINE
  8
1
 62
7
  6
CONTINUOUS
 10
444.967000
 20
316.000000
 11
444.967000
 21
279.500000
  0
LINE
  8
1
 62
7
  6
CONTINUOUS
 10
444.967000
 20
316.000000
 11
441.967000
 21
316.000000
  0
LINE
  8
1
 62
7
  6
CONTINUOUS
 10
441.967000
 20
279.500000
 11
441.967000
 21
316.000000
  0
LINE
  8
1
 62
7
  6
CONTINUOUS
 10
444.967000
 20
260.000000
 11
444.967000
 21
279.500000
  0
LINE
  8
1
 62
7
  6
CONTINUOUS
 10
444.967000
 20
260.000000
 11
441.967000
 21
260.000000
  0
LINE
  8
1
 62
7
  6
CONTINUOUS
 10
441.967000
 20
260.000000
 11
441.967000
 21
279.500000
  0
LINE
  8
1
 62
7
  6
CONTINUOUS
 10
448.217000
 20
298.000000
 11
448.717000
 21
297.500000
  0
LINE
  8
1
 62
7
  6
CONTINUOUS
 10
448.717000
 20
297.500000
 11
448.717000
 21
316.500000
  0
LINE
  8
1
 62
7
  6
CONTINUOUS
 10
448.217000
 20
296.500000
 11
448.217000
 21
316.000000
  0
LINE
  8
1
 62
7
  6
CONTINUOUS
 10
445.217000
 20
296.500000
 11
445.217000
 21
316.000000
  0
LINE
  8
1
 62
7
  6
CONTINUOUS
 10
445.217000
 20
316.000000
 11
448.217000
 21
316.000000
  0
LINE
  8
1
 62
7
  6
CONTINUOUS
 10
445.217000
 20
315.000000
 11
444.967000
 21
315.000000
  0
LINE
  8
1
 62
7
  6
CONTINUOUS
 10
444.967000
 20
300.000000
 11
445.217000
 21
300.000000
  0
LINE
  8
1
 62
7
  6
CONTINUOUS
 10
441.967000
 20
316.000000
 11
440.967000
 21
316.000000
  0
LINE
  8
1
 62
7
  6
CONTINUOUS
 10
440.967000
 20
316.000000
 11
440.967000
 21
299.000000
  0
LINE
  8
1
 62
7
  6
CONTINUOUS
 10
440.967000
 20
299.000000
 11
441.967000
 21
299.000000
  0
LINE
  8
1
 62
7
  6
CONTINUOUS
 10
440.967000
 20
316.000000
 11
438.467000
 21
316.000000
  0
LINE
  8
1
 62
7
  6
CONTINUOUS
 10
438.467000
 20
316.000000
 11
437.967000
 21
315.500000
  0
LINE
  8
1
 62
7
  6
CONTINUOUS
 10
438.467000
 20
299.000000
 11
440.967000
 21
299.000000
  0
LINE
  8
1
 62
7
  6
CONTINUOUS
 10
437.967000
 20
315.500000
 11
437.967000
 21
299.500000
  0
LINE
  8
1
 62
7
  6
CONTINUOUS
 10
438.467000
 20
299.000000
 11
437.967000
 21
299.500000
  0
LINE
  8
1
 62
7
  6
CONTINUOUS
 10
438.467000
 20
316.000000
 11
438.467000
 21
299.000000
  0
LINE
  8
1
 62
7
  6
CONTINUOUS
 10
441.967000
 20
277.000000
 11
440.967000
 21
277.000000
  0
LINE
  8
1
 62
7
  6
CONTINUOUS
 10
440.967000
 20
277.000000
 11
440.967000
 21
260.000000
  0
LINE
  8
1
 62
7
  6
CONTINUOUS
 10
440.967000
 20
260.000000
 11
441.967000
 21
260.000000
  0
LINE
  8
1
 62
7
  6
CONTINUOUS
 10
440.967000
 20
277.000000
 11
438.467000
 21
277.000000
  0
LINE
  8
1
 62
7
  6
CONTINUOUS
 10
438.467000
 20
277.000000
 11
437.967000
 21
276.500000
  0
LINE
  8
1
 62
7
  6
CONTINUOUS
 10
438.467000
 20
260.000000
 11
440.967000
 21
260.000000
  0
LINE
  8
1
 62
7
  6
CONTINUOUS
 10
437.967000
 20
276.500000
 11
437.967000
 21
260.500000
  0
LINE
  8
1
 62
7
  6
CONTINUOUS
 10
438.467000
 20
260.000000
 11
437.967000
 21
260.500000
  0
LINE
  8
1
 62
7
  6
CONTINUOUS
 10
438.467000
 20
277.000000
 11
438.467000
 21
260.000000
  0
LINE
  8
1
 62
7
  6
CONTINUOUS
 10
441.967000
 20
296.500000
 11
440.967000
 21
296.500000
  0
LINE
  8
1
 62
7
  6
CONTINUOUS
 10
440.967000
 20
296.500000
 11
440.967000
 21
279.500000
  0
LINE
  8
1
 62
7
  6
CONTINUOUS
 10
440.967000
 20
279.500000
 11
441.967000
 21
279.500000
  0
LINE
  8
1
 62
7
  6
CONTINUOUS
 10
440.967000
 20
296.500000
 11
438.467000
 21
296.500000
  0
LINE
  8
1
 62
7
  6
CONTINUOUS
 10
438.467000
 20
296.500000
 11
437.967000
 21
296.000000
  0
LINE
  8
1
 62
7
  6
CONTINUOUS
 10
438.467000
 20
279.500000
 11
440.967000
 21
279.500000
  0
LINE
  8
1
 62
7
  6
CONTINUOUS
 10
437.967000
 20
296.000000
 11
437.967000
 21
280.000000
  0
LINE
  8
1
 62
7
  6
CONTINUOUS
 10
438.467000
 20
279.500000
 11
437.967000
 21
280.000000
  0
LINE
  8
1
 62
7
  6
CONTINUOUS
 10
438.467000
 20
296.500000
 11
438.467000
 21
279.500000
  0
LINE
  8
1
 62
7
  6
DASHDOT
 10
434.967000
 20
307.500000
 11
536.467000
 21
307.500000
  0
LINE
  8
1
 62
7
  6
DASHDOT
 10
434.967000
 20
268.500000
 11
536.467000
 21
268.500000
  0
LINE
  8
1
 62
7
  6
DASHDOT
 10
538.467000
 20
288.000000
 11
432.967000
 21
288.000000
  0
LINE
  8
1
 62
7
  6
CONTINUOUS
 10
436.217000
 20
328.500000
 11
435.717000
 21
328.000000
  0
LINE
  8
1
 62
7
  6
CONTINUOUS
 10
435.717000
 20
317.000000
 11
435.717000
 21
328.000000
  0
LINE
  8
1
 62
7
  6
CONTINUOUS
 10
436.217000
 20
316.500000
 11
435.717000
 21
317.000000
  0
LINE
  8
1
 62
7
  6
CONTINUOUS
 10
436.217000
 20
328.500000
 11
535.217000
 21
328.500000
  0
LINE
  8
1
 62
7
  6
CONTINUOUS
 10
535.717000
 20
328.000000
 11
535.217000
 21
328.500000
  0
LINE
  8
1
 62
7
  6
CONTINUOUS
 10
535.717000
 20
328.000000
 11
535.717000
 21
317.000000
  0
LINE
  8
1
 62
7
  6
CONTINUOUS
 10
535.217000
 20
316.500000
 11
535.717000
 21
317.000000
  0
LINE
  8
1
 62
7
  6
CONTINUOUS
 10
535.217000
 20
259.500000
 11
535.717000
 21
259.000000
  0
LINE
  8
1
 62
7
  6
CONTINUOUS
 10
535.717000
 20
259.000000
 11
535.717000
 21
248.000000
  0
LINE
  8
1
 62
7
  6
CONTINUOUS
 10
535.217000
 20
247.500000
 11
535.717000
 21
248.000000
  0
LINE
  8
1
 62
7
  6
CONTINUOUS
 10
436.217000
 20
247.500000
 11
535.217000
 21
247.500000
  0
LINE
  8
1
 62
7
  6
CONTINUOUS
 10
435.717000
 20
248.000000
 11
436.217000
 21
247.500000
  0
LINE
  8
1
 62
7
  6
CONTINUOUS
 10
435.717000
 20
248.000000
 11
435.717000
 21
259.000000
  0
LINE
  8
1
 62
7
  6
CONTINUOUS
 10
436.217000
 20
259.500000
 11
435.717000
 21
259.000000
  0
CIRCLE
  8
1
 62
7
  6
CONTINUOUS
 10
485.717000
 20
288.000000
 40
30.000000
  0
CIRCLE
  8
1
 62
7
  6
CONTINUOUS
 10
485.717000
 20
288.000000
 40
29.000000
  0
LINE
  8
1
 62
7
  6
CONTINUOUS
 10
514.173107
 20
297.500000
 11
522.717000
 21
297.500000
  0
LINE
  8
1
 62
7
  6
CONTINUOUS
 10
448.717000
 20
297.500000
 11
457.260893
 21
297.500000
  0
LINE
  8
1
 62
7
  6
CONTINUOUS
 10
457.098824
 20
297.000000
 11
448.717000
 21
297.000000
  0
LINE
  8
1
 62
7
  6
CONTINUOUS
 10
522.717000
 20
297.000000
 11
514.335176
 21
297.000000
  0
LINE
  8
1
 62
7
  6
CONTINUOUS
 10
514.335176
 20
279.000000
 11
522.717000
 21
279.000000
  0
LINE
  8
1
 62
7
  6
CONTINUOUS
 10
448.717000
 20
279.000000
 11
457.098824
 21
279.000000
  0
LINE
  8
1
 62
7
  6
CONTINUOUS
 10
514.173107
 20
278.500000
 11
522.717000
 21
278.500000
  0
LINE
  8
1
 62
7
  6
CONTINUOUS
 10
448.717000
 20
278.500000
 11
457.260893
 21
278.500000
  0
LINE
  8
1
 62
7
  6
CONTINUOUS
 10
495.084497
 20
259.500000
 11
535.217000
 21
259.500000
  0
LINE
  8
1
 62
7
  6
CONTINUOUS
 10
436.217000
 20
259.500000
 11
476.349503
 21
259.500000
  0
LINE
  8
1
 62
7
  6
CONTINUOUS
 10
476.349503
 20
316.500000
 11
436.217000
 21
316.500000
  0
ARC
  8
1
 62
7
  6
CONTINUOUS
 10
515.686538
 20
313.154798
 40
1.309576
 50
-67.703357
 51
-36.575573
  0
ARC
  8
1
 62
7
  6
CONTINUOUS
 10
515.293253
 20
313.465579
 40
1.810665
 50
-37.057438
 51
-11.887268
  0
ARC
  8
1
 62
7
  6
CONTINUOUS
 10
514.462736
 20
313.684578
 40
2.668833
 50
-12.815333
 51
6.534333
  0
ARC
  8
1
 62
7
  6
CONTINUOUS
 10
513.745704
 20
313.637662
 40
3.386726
 50
5.942436
 51
22.343040
  0
ARC
  8
1
 62
7
  6
CONTINUOUS
 10
513.680258
 20
313.625911
 40
3.451754
 50
22.110480
 51
38.200043
  0
ARC
  8
1
 62
7
  6
CONTINUOUS
 10
514.183249
 20
314.017459
 40
2.814342
 50
38.268318
 51
56.608682
  0
ARC
  8
1
 62
7
  6
CONTINUOUS
 10
514.677288
 20
314.741380
 40
1.938071
 50
57.024818
 51
80.515888
  0
ARC
  8
1
 62
7
  6
CONTINUOUS
 10
514.794342
 20
315.311871
 40
1.356260
 50
81.422161
 51
111.452768
  0
ARC
  8
1
 62
7
  6
CONTINUOUS
 10
514.795167
 20
315.362507
 40
1.309576
 50
112.296643
 51
143.424427
  0
ARC
  8
1
 62
7
  6
CONTINUOUS
 10
515.188452
 20
315.051726
 40
1.810665
 50
142.942562
 51
168.112732
  0
ARC
  8
1
 62
7
  6
CONTINUOUS
 10
516.018969
 20
314.832727
 40
2.668833
 50
167.184667
 51
-173.465667
  0
ARC
  8
1
 62
7
  6
CONTINUOUS
 10
516.736001
 20
314.879643
 40
3.386726
 50
-174.057564
 51
-157.656960
  0
ARC
  8
1
 62
7
  6
CONTINUOUS
 10
516.801447
 20
314.891394
 40
3.451754
 50
-157.889520
 51
-141.799957
  0
ARC
  8
1
 62
7
  6
CONTINUOUS
 10
516.298456
 20
314.499846
 40
2.814342
 50
-141.731682
 51
-123.391318
  0
ARC
  8
1
 62
7
  6
CONTINUOUS
 10
515.804417
 20
313.775925
 40
1.938071
 50
-122.975182
 51
-99.484112
  0
ARC
  8
1
 62
7
  6
CONTINUOUS
 10
515.687363
 20
313.205434
 40
1.356260
 50
-98.577839
 51
-68.547232
  0
ARC
  8
1
 62
7
  6
CONTINUOUS
 10
516.188164
 20
313.871061
 40
0.785746
 50
-67.703356
 51
-36.575573
  0
ARC
  8
1
 62
7
  6
CONTINUOUS
 10
515.952193
 20
314.057529
 40
1.086399
 50
-37.057438
 51
-11.887268
  0
ARC
  8
1
 62
7
  6
CONTINUOUS
 10
515.453883
 20
314.188929
 40
1.601300
 50
-12.815333
 51
6.534333
  0
ARC
  8
1
 62
7
  6
CONTINUOUS
 10
515.023664
 20
314.160780
 40
2.032035
 50
5.942436
 51
22.343040
  0
ARC
  8
1
 62
7
  6
CONTINUOUS
 10
514.984396
 20
314.153729
 40
2.071053
 50
22.110481
 51
38.200043
  0
ARC
  8
1
 62
7
  6
CONTINUOUS
 10
515.286190
 20
314.388657
 40
1.688605
 50
38.268318
 51
56.608682
  0
ARC
  8
1
 62
7
  6
CONTINUOUS
 10
515.582614
 20
314.823010
 40
1.162843
 50
57.024818
 51
80.515888
  0
ARC
  8
1
 62
7
  6
CONTINUOUS
 10
515.652846
 20
315.165305
 40
0.813756
 50
81.422161
 51
111.452768
  0
ARC
  8
1
 62
7
  6
CONTINUOUS
 10
515.653341
 20
315.195687
 40
0.785746
 50
112.296643
 51
143.424427
  0
ARC
  8
1
 62
7
  6
CONTINUOUS
 10
515.889313
 20
315.009218
 40
1.086399
 50
142.942563
 51
168.112732
  0
ARC
  8
1
 62
7
  6
CONTINUOUS
 10
516.387623
 20
314.877818
 40
1.601300
 50
167.184667
 51
-173.465667
  0
ARC
  8
1
 62
7
  6
CONTINUOUS
 10
516.817841
 20
314.905968
 40
2.032036
 50
-174.057564
 51
-157.656960
  0
ARC
  8
1
 62
7
  6
CONTINUOUS
 10
516.857109
 20
314.913018
 40
2.071053
 50
-157.889520
 51
-141.799957
  0
ARC
  8
1
 62
7
  6
CONTINUOUS
 10
516.555315
 20
314.678090
 40
1.688605
 50
-141.731682
 51
-123.391318
  0
ARC
  8
1
 62
7
  6
CONTINUOUS
 10
516.258891
 20
314.243737
 40
1.162843
 50
-122.975182
 51
-99.484112
  0
ARC
  8
1
 62
7
  6
CONTINUOUS
 10
516.188659
 20
313.901443
 40
0.813756
 50
-98.577839
 51
-68.547232
  0
LINE
  8
1
 62
7
  6
CONTINUOUS
 10
502.929786
 20
312.570714
 11
503.217000
 21
312.570714
  0
LINE
  8
1
 62
7
  6
CONTINUOUS
 10
503.486617
 20
312.171072
 11
514.362690
 21
316.598333
  0
LINE
  8
1
 62
7
  6
CONTINUOUS
 10
503.217000
 20
312.570714
 11
503.290296
 21
312.314178
  0
LINE
  8
1
 62
7
  6
CONTINUOUS
 10
507.650444
 20
308.467634
 11
516.183394
 21
311.941094
  0
LINE
  8
1
 62
7
  6
DASHDOT
 10
502.150444
 20
308.927972
 11
518.731283
 21
315.677441
  0
LINE
  8
1
 62
7
  6
CONTINUOUS
 10
514.146365
 20
316.500000
 11
495.084497
 21
316.500000
  0
LINE
  8
1
 62
7
  6
CONTINUOUS
 10
535.217000
 20
316.500000
 11
515.492792
 21
316.500000
  0
CIRCLE
  8
1
 62
7
  6
CONTINUOUS
 10
519.717000
 20
307.500000
 40
2.000000
  0
CIRCLE
  8
1
 62
7
  6
CONTINUOUS
 10
519.717000
 20
307.500000
 40
1.650000
  0
LINE
  8
1
 62
7
  6
DASHDOT
 10
519.717000
 20
304.500000
 11
519.717000
 21
310.500000
  0
CIRCLE
  8
1
 62
7
  6
CONTINUOUS
 10
519.717000
 20
307.500000
 40
1.500000
  0
LINE
  8
1
 62
7
  6
CONTINUOUS
 10
519.117000
 20
308.500000
 11
518.517000
 21
307.500000
  0
LINE
  8
1
 62
7
  6
CONTINUOUS
 10
518.517000
 20
307.500000
 11
519.117000
 21
306.500000
  0
LINE
  8
1
 62
7
  6
CONTINUOUS
 10
519.117000
 20
306.500000
 11
520.317000
 21
306.500000
  0
LINE
  8
1
 62
7
  6
CONTINUOUS
 10
520.317000
 20
306.500000
 11
520.917000
 21
307.500000
  0
LINE
  8
1
 62
7
  6
CONTINUOUS
 10
520.917000
 20
307.500000
 11
520.317000
 21
308.500000
  0
LINE
  8
1
 62
7
  6
CONTINUOUS
 10
520.317000
 20
308.500000
 11
519.117000
 21
308.500000
  0
CIRCLE
  8
1
 62
7
  6
CONTINUOUS
 10
451.717000
 20
307.500000
 40
2.000000
  0
CIRCLE
  8
1
 62
7
  6
CONTINUOUS
 10
451.717000
 20
307.500000
 40
1.650000
  0
LINE
  8
1
 62
7
  6
DASHDOT
 10
451.717000
 20
304.500000
 11
451.717000
 21
310.500000
  0
CIRCLE
  8
1
 62
7
  6
CONTINUOUS
 10
451.717000
 20
307.500000
 40
1.500000
  0
LINE
  8
1
 62
7
  6
CONTINUOUS
 10
452.317000
 20
308.500000
 11
452.917000
 21
307.500000
  0
LINE
  8
1
 62
7
  6
CONTINUOUS
 10
452.917000
 20
307.500000
 11
452.317000
 21
306.500000
  0
LINE
  8
1
 62
7
  6
CONTINUOUS
 10
452.317000
 20
306.500000
 11
451.117000
 21
306.500000
  0
LINE
  8
1
 62
7
  6
CONTINUOUS
 10
451.117000
 20
306.500000
 11
450.517000
 21
307.500000
  0
LINE
  8
1
 62
7
  6
CONTINUOUS
 10
450.517000
 20
307.500000
 11
451.117000
 21
308.500000
  0
LINE
  8
1
 62
7
  6
CONTINUOUS
 10
451.117000
 20
308.500000
 11
452.317000
 21
308.500000
  0
CIRCLE
  8
1
 62
7
  6
CONTINUOUS
 10
519.717000
 20
268.500000
 40
2.000000
  0
CIRCLE
  8
1
 62
7
  6
CONTINUOUS
 10
519.717000
 20
268.500000
 40
1.650000
  0
LINE
  8
1
 62
7
  6
DASHDOT
 10
519.717000
 20
271.500000
 11
519.717000
 21
265.500000
  0
CIRCLE
  8
1
 62
7
  6
CONTINUOUS
 10
519.717000
 20
268.500000
 40
1.500000
  0
LINE
  8
1
 62
7
  6
CONTINUOUS
 10
519.117000
 20
267.500000
 11
518.517000
 21
268.500000
  0
LINE
  8
1
 62
7
  6
CONTINUOUS
 10
518.517000
 20
268.500000
 11
519.117000
 21
269.500000
  0
LINE
  8
1
 62
7
  6
CONTINUOUS
 10
519.117000
 20
269.500000
 11
520.317000
 21
269.500000
  0
LINE
  8
1
 62
7
  6
CONTINUOUS
 10
520.317000
 20
269.500000
 11
520.917000
 21
268.500000
  0
LINE
  8
1
 62
7
  6
CONTINUOUS
 10
520.917000
 20
268.500000
 11
520.317000
 21
267.500000
  0
LINE
  8
1
 62
7
  6
CONTINUOUS
 10
520.317000
 20
267.500000
 11
519.117000
 21
267.500000
  0
CIRCLE
  8
1
 62
7
  6
CONTINUOUS
 10
451.717000
 20
268.500000
 40
2.000000
  0
CIRCLE
  8
1
 62
7
  6
CONTINUOUS
 10
451.717000
 20
268.500000
 40
1.650000
  0
LINE
  8
1
 62
7
  6
DASHDOT
 10
451.717000
 20
271.500000
 11
451.717000
 21
265.500000
  0
CIRCLE
  8
1
 62
7
  6
CONTINUOUS
 10
451.717000
 20
268.500000
 40
1.500000
  0
LINE
  8
1
 62
7
  6
CONTINUOUS
 10
452.317000
 20
267.500000
 11
452.917000
 21
268.500000
  0
LINE
  8
1
 62
7
  6
CONTINUOUS
 10
452.917000
 20
268.500000
 11
452.317000
 21
269.500000
  0
LINE
  8
1
 62
7
  6
CONTINUOUS
 10
452.317000
 20
269.500000
 11
451.117000
 21
269.500000
  0
LINE
  8
1
 62
7
  6
CONTINUOUS
 10
451.117000
 20
269.500000
 11
450.517000
 21
268.500000
  0
LINE
  8
1
 62
7
  6
CONTINUOUS
 10
450.517000
 20
268.500000
 11
451.117000
 21
267.500000
  0
LINE
  8
1
 62
7
  6
CONTINUOUS
 10
451.117000
 20
267.500000
 11
452.317000
 21
267.500000
  0
CIRCLE
  8
1
 62
7
  6
CONTINUOUS
 10
795.759332
 20
288.000000
 40
8.500000
  0
CIRCLE
  8
1
 62
7
  6
CONTINUOUS
 10
795.759332
 20
288.000000
 40
8.000000
  0
LINE
  8
1
 62
7
  6
DASHDOT
 10
795.759332
 20
277.000000
 11
795.759332
 21
299.000000
  0
LINE
  8
1
 62
7
  6
CONTINUOUS
 10
799.362593
 20
295.698475
 11
757.700260
 21
315.198475
  0
LINE
  8
1
 62
7
  6
CONTINUOUS
 10
750.493738
 20
299.801525
 11
792.156071
 21
280.301525
  0
LINE
  8
1
 62
7
  6
CONTINUOUS
 10
757.700260
 20
260.801525
 11
799.362593
 21
280.301525
  0
CIRCLE
  8
1
 62
7
  6
CONTINUOUS
 10
712.434666
 20
288.000000
 40
8.500000
  0
CIRCLE
  8
1
 62
7
  6
CONTINUOUS
 10
712.434666
 20
288.000000
 40
8.000000
  0
LINE
  8
1
 62
7
  6
CONTINUOUS
 10
750.493738
 20
315.198475
 11
708.831405
 21
295.698475
  0
LINE
  8
1
 62
7
  6
CONTINUOUS
 10
716.037927
 20
295.698475
 11
757.700260
 21
276.198475
  0
LINE
  8
1
 62
7
  6
CONTINUOUS
 10
750.493738
 20
260.801525
 11
708.831405
 21
280.301525
  0
LINE
  8
1
 62
7
  6
CONTINUOUS
 10
732.485948
 20
288.000000
 11
754.096999
 21
298.115024
  0
LINE
  8
1
 62
7
  6
CONTINUOUS
 10
775.708050
 20
288.000000
 11
754.096999
 21
277.884976
  0
ARC
  8
1
 62
7
  6
CONTINUOUS
 10
795.759332
 20
288.000000
 40
9.000000
 50
-84.106254
 51
84.106254
  0
ARC
  8
1
 62
7
  6
CONTINUOUS
 10
712.434666
 20
288.000000
 40
9.000000
 50
95.893746
 51
-95.893746
  0
CIRCLE
  8
1
 62
7
  6
CONTINUOUS
 10
681.759332
 20
288.000000
 40
8.500000
  0
CIRCLE
  8
1
 62
7
  6
CONTINUOUS
 10
681.759332
 20
288.000000
 40
8.000000
  0
LINE
  8
1
 62
7
  6
CONTINUOUS
 10
685.362593
 20
295.698475
 11
643.700260
 21
315.198475
  0
LINE
  8
1
 62
7
  6
CONTINUOUS
 10
636.493738
 20
299.801525
 11
678.156071
 21
280.301525
  0
LINE
  8
1
 62
7
  6
CONTINUOUS
 10
643.700260
 20
260.801525
 11
685.362593
 21
280.301525
  0
CIRCLE
  8
1
 62
7
  6
CONTINUOUS
 10
598.434666
 20
288.000000
 40
8.500000
  0
CIRCLE
  8
1
 62
7
  6
CONTINUOUS
 10
598.434666
 20
288.000000
 40
8.000000
  0
LINE
  8
1
 62
7
  6
CONTINUOUS
 10
636.493738
 20
315.198475
 11
594.831405
 21
295.698475
  0
LINE
  8
1
 62
7
  6
CONTINUOUS
 10
602.037927
 20
295.698475
 11
643.700260
 21
276.198475
  0
LINE
  8
1
 62
7
  6
CONTINUOUS
 10
636.493738
 20
260.801525
 11
594.831405
 21
280.301525
  0
LINE
  8
1
 62
7
  6
CONTINUOUS
 10
618.485948
 20
288.000000
 11
640.096999
 21
298.115024
  0
LINE
  8
1
 62
7
  6
CONTINUOUS
 10
661.708050
 20
288.000000
 11
640.096999
 21
277.884976
  0
ARC
  8
1
 62
7
  6
CONTINUOUS
 10
681.759332
 20
288.000000
 40
9.000000
 50
-84.106254
 51
84.106254
  0
ARC
  8
1
 62
7
  6
CONTINUOUS
 10
598.434666
 20
288.000000
 40
9.000000
 50
95.893746
 51
-95.893746
  0
LINE
  8
1
 62
7
  6
CONTINUOUS
 10
702.434666
 20
280.000000
 11
703.434666
 21
280.000000
  0
LINE
  8
1
 62
7
  6
CONTINUOUS
 10
703.434666
 20
296.000000
 11
702.434666
 21
296.000000
  0
LINE
  8
1
 62
7
  6
CONTINUOUS
 10
703.434666
 20
295.000000
 11
706.777812
 21
295.000000
  0
LINE
  8
1
 62
7
  6
CONTINUOUS
 10
703.434666
 20
281.000000
 11
706.777812
 21
281.000000
  0
LINE
  8
1
 62
7
  6
CONTINUOUS
 10
691.759332
 20
297.000000
 11
693.259332
 21
297.000000
  0
LINE
  8
1
 62
7
  6
CONTINUOUS
 10
693.259332
 20
279.000000
 11
691.759332
 21
279.000000
  0
ARC
  8
1
 62
7
  6
CONTINUOUS
 10
692.509332
 20
295.000000
 40
1.500000
 50
45.572996
 51
60.000000
  0
ARC
  8
1
 62
7
  6
CONTINUOUS
 10
692.509332
 20
295.000000
 40
1.500000
 50
120.000000
 51
134.427004
  0
ARC
  8
1
 62
7
  6
CONTINUOUS
 10
692.509332
 20
292.949747
 40
1.500000
 50
45.572996
 51
60.000000
  0
ARC
  8
1
 62
7
  6
CONTINUOUS
 10
692.509332
 20
292.949747
 40
1.500000
 50
120.000000
 51
134.427004
  0
ARC
  8
1
 62
7
  6
CONTINUOUS
 10
692.509332
 20
281.000000
 40
1.500000
 50
-60.000000
 51
-45.572996
  0
ARC
  8
1
 62
7
  6
CONTINUOUS
 10
692.509332
 20
281.000000
 40
1.500000
 50
-134.427004
 51
-120.000000
  0
ARC
  8
1
 62
7
  6
CONTINUOUS
 10
692.509332
 20
283.050253
 40
1.500000
 50
-60.000000
 51
-45.572996
  0
ARC
  8
1
 62
7
  6
CONTINUOUS
 10
692.509332
 20
283.050253
 40
1.500000
 50
-134.427004
 51
-120.000000
  0
LINE
  8
1
 62
7
  6
CONTINUOUS
 10
689.959332
 20
297.000000
 11
691.459332
 21
297.000000
  0
ARC
  8
1
 62
7
  6
CONTINUOUS
 10
689.959332
 20
296.800000
 40
0.200000
 50
90.000000
 51
180.000000
  0
LINE
  8
1
 62
7
  6
CONTINUOUS
 10
693.559332
 20
297.000000
 11
695.059332
 21
297.000000
  0
ARC
  8
1
 62
7
  6
CONTINUOUS
 10
695.059332
 20
296.800000
 40
0.200000
 50
0.000000
 51
90.000000
  0
LINE
  8
1
 62
7
  6
CONTINUOUS
 10
695.059332
 20
279.000000
 11
693.559332
 21
279.000000
  0
ARC
  8
1
 62
7
  6
CONTINUOUS
 10
695.059332
 20
279.200000
 40
0.200000
 50
-90.000000
 51
0.000000
  0
LINE
  8
1
 62
7
  6
CONTINUOUS
 10
691.459332
 20
279.000000
 11
689.959332
 21
279.000000
  0
ARC
  8
1
 62
7
  6
CONTINUOUS
 10
689.959332
 20
279.200000
 40
0.200000
 50
180.000000
 51
-90.000000
  0
LINE
  8
1
 62
7
  6
CONTINUOUS
 10
689.759332
 20
283.876894
 11
689.759332
 21
279.200000
  0
LINE
  8
1
 62
7
  6
CONTINUOUS
 10
689.759332
 20
296.800000
 11
689.759332
 21
292.123106
  0
LINE
  8
1
 62
7
  6
CONTINUOUS
 10
695.459332
 20
297.000000
 11
695.259332
 21
296.800000
  0
LINE
  8
1
 62
7
  6
CONTINUOUS
 10
695.459332
 20
297.000000
 11
701.059332
 21
297.000000
  0
LINE
  8
1
 62
7
  6
CONTINUOUS
 10
701.259332
 20
296.800000
 11
701.059332
 21
297.000000
  0
LINE
  8
1
 62
7
  6
CONTINUOUS
 10
701.059332
 20
279.000000
 11
701.259332
 21
279.200000
  0
LINE
  8
1
 62
7
  6
CONTINUOUS
 10
701.059332
 20
279.000000
 11
695.459332
 21
279.000000
  0
LINE
  8
1
 62
7
  6
CONTINUOUS
 10
695.259332
 20
279.200000
 11
695.459332
 21
279.000000
  0
LINE
  8
1
 62
7
  6
CONTINUOUS
 10
701.259332
 20
293.000000
 11
702.434666
 21
293.000000
  0
LINE
  8
1
 62
7
  6
CONTINUOUS
 10
702.434666
 20
292.500000
 11
701.259332
 21
292.500000
  0
LINE
  8
1
 62
7
  6
CONTINUOUS
 10
701.259332
 20
283.000000
 11
702.434666
 21
283.000000
  0
LINE
  8
1
 62
7
  6
CONTINUOUS
 10
702.434666
 20
283.500000
 11
701.259332
 21
283.500000
  0
LINE
  8
1
 62
7
  6
CONTINUOUS
 10
704.372408
 20
292.000000
 11
689.821590
 21
292.000000
  0
LINE
  8
1
 62
7
  6
CONTINUOUS
 10
704.372408
 20
284.000000
 11
689.821590
 21
284.000000
  0
LINE
  8
1
 62
7
  6
CONTINUOUS
 10
703.434666
 20
292.000000
 11
703.434666
 21
296.000000
  0
LINE
  8
1
 62
7
  6
CONTINUOUS
 10
703.434666
 20
280.000000
 11
703.434666
 21
284.000000
  0
LINE
  8
1
 62
7
  6
CONTINUOUS
 10
702.434666
 20
284.000000
 11
702.434666
 21
280.000000
  0
LINE
  8
1
 62
7
  6
CONTINUOUS
 10
702.434666
 20
296.000000
 11
702.434666
 21
292.000000
  0
LINE
  8
1
 62
7
  6
CONTINUOUS
 10
701.259332
 20
284.000000
 11
701.259332
 21
279.200000
  0
LINE
  8
1
 62
7
  6
CONTINUOUS
 10
701.259332
 20
296.800000
 11
701.259332
 21
292.000000
  0
LINE
  8
1
 62
7
  6
CONTINUOUS
 10
701.059332
 20
292.000000
 11
701.059332
 21
297.000000
  0
LINE
  8
1
 62
7
  6
CONTINUOUS
 10
701.059332
 20
279.000000
 11
701.059332
 21
284.000000
  0
LINE
  8
1
 62
7
  6
CONTINUOUS
 10
695.459332
 20
284.000000
 11
695.459332
 21
279.000000
  0
LINE
  8
1
 62
7
  6
CONTINUOUS
 10
695.459332
 20
297.000000
 11
695.459332
 21
292.000000
  0
LINE
  8
1
 62
7
  6
CONTINUOUS
 10
695.259332
 20
284.000000
 11
695.259332
 21
279.200000
  0
LINE
  8
1
 62
7
  6
CONTINUOUS
 10
695.259332
 20
296.800000
 11
695.259332
 21
292.000000
  0
LINE
  8
1
 62
7
  6
CONTINUOUS
 10
693.559332
 20
292.000000
 11
693.559332
 21
297.000000
  0
LINE
  8
1
 62
7
  6
CONTINUOUS
 10
693.559332
 20
279.000000
 11
693.559332
 21
284.000000
  0
LINE
  8
1
 62
7
  6
CONTINUOUS
 10
691.459332
 20
284.000000
 11
691.459332
 21
279.000000
  0
LINE
  8
1
 62
7
  6
CONTINUOUS
 10
691.459332
 20
297.000000
 11
691.459332
 21
292.000000
  0
LINE
  8
1
 62
7
  6
CONTINUOUS
 10
693.259332
 20
284.000000
 11
693.259332
 21
279.000000
  0
LINE
  8
1
 62
7
  6
CONTINUOUS
 10
693.259332
 20
297.000000
 11
693.259332
 21
292.000000
  0
LINE
  8
1
 62
7
  6
CONTINUOUS
 10
691.759332
 20
292.000000
 11
691.759332
 21
297.000000
  0
LINE
  8
1
 62
7
  6
CONTINUOUS
 10
691.759332
 20
279.000000
 11
691.759332
 21
284.000000
  0
LINE
  8
1
 62
7
  6
CONTINUOUS
 10
689.759332
 20
293.000000
 11
689.242647
 21
293.000000
  0
LINE
  8
1
 62
7
  6
CONTINUOUS
 10
689.759332
 20
283.000000
 11
689.242647
 21
283.000000
  0
LINE
  8
1
 62
7
  6
CONTINUOUS
 10
617.596999
 20
328.500000
 11
617.096999
 21
328.000000
  0
LINE
  8
1
 62
7
  6
CONTINUOUS
 10
617.096999
 20
317.000000
 11
617.096999
 21
328.000000
  0
LINE
  8
1
 62
7
  6
CONTINUOUS
 10
617.596999
 20
316.500000
 11
617.096999
 21
317.000000
  0
LINE
  8
1
 62
7
  6
CONTINUOUS
 10
776.596999
 20
316.500000
 11
617.596999
 21
316.500000
  0
LINE
  8
1
 62
7
  6
CONTINUOUS
 10
777.096999
 20
317.000000
 11
776.596999
 21
316.500000
  0
LINE
  8
1
 62
7
  6
CONTINUOUS
 10
617.596999
 20
328.500000
 11
776.596999
 21
328.500000
  0
LINE
  8
1
 62
7
  6
CONTINUOUS
 10
777.096999
 20
328.000000
 11
777.096999
 21
317.000000
  0
LINE
  8
1
 62
7
  6
CONTINUOUS
 10
776.596999
 20
328.500000
 11
777.096999
 21
328.000000
  0
LINE
  8
1
 62
7
  6
CONTINUOUS
 10
776.596999
 20
259.500000
 11
777.096999
 21
259.000000
  0
LINE
  8
1
 62
7
  6
CONTINUOUS
 10
777.096999
 20
259.000000
 11
777.096999
 21
248.000000
  0
LINE
  8
1
 62
7
  6
CONTINUOUS
 10
776.596999
 20
247.500000
 11
777.096999
 21
248.000000
  0
LINE
  8
1
 62
7
  6
CONTINUOUS
 10
776.596999
 20
247.500000
 11
617.596999
 21
247.500000
  0
LINE
  8
1
 62
7
  6
CONTINUOUS
 10
617.096999
 20
248.000000
 11
617.596999
 21
247.500000
  0
LINE
  8
1
 62
7
  6
CONTINUOUS
 10
776.596999
 20
259.500000
 11
617.596999
 21
259.500000
  0
LINE
  8
1
 62
7
  6
CONTINUOUS
 10
617.096999
 20
248.000000
 11
617.096999
 21
259.000000
  0
LINE
  8
1
 62
7
  6
CONTINUOUS
 10
617.596999
 20
259.500000
 11
617.096999
 21
259.000000
  0
LINE
  8
1
 62
7
  6
CONTINUOUS
 10
592.434666
 20
297.070714
 11
592.934666
 21
297.570714
  0
LINE
  8
1
 62
7
  6
CONTINUOUS
 10
592.434666
 20
294.708204
 11
592.434666
 21
297.070714
  0
LINE
  8
1
 62
7
  6
CONTINUOUS
 10
597.763236
 20
297.070714
 11
592.434666
 21
297.070714
  0
LINE
  8
1
 62
7
  6
CONTINUOUS
 10
592.434666
 20
278.929286
 11
592.934666
 21
278.429286
  0
LINE
  8
1
 62
7
  6
CONTINUOUS
 10
592.434666
 20
281.291796
 11
592.434666
 21
278.929286
  0
LINE
  8
1
 62
7
  6
CONTINUOUS
 10
598.831501
 20
278.429286
 11
592.934666
 21
278.429286
  0
LINE
  8
1
 62
7
  6
CONTINUOUS
 10
597.763236
 20
278.929286
 11
592.434666
 21
278.929286
  0
LINE
  8
1
 62
7
  6
CONTINUOUS
 10
591.434666
 20
298.070714
 11
591.434666
 21
303.570714
  0
LINE
  8
1
 62
7
  6
CONTINUOUS
 10
591.434666
 20
298.070714
 11
591.934666
 21
297.570714
  0
LINE
  8
1
 62
7
  6
CONTINUOUS
 10
598.831501
 20
297.570714
 11
591.934666
 21
297.570714
  0
LINE
  8
1
 62
7
  6
CONTINUOUS
 10
599.899766
 20
298.070714
 11
591.434666
 21
298.070714
  0
LINE
  8
1
 62
7
  6
CONTINUOUS
 10
605.434666
 20
303.570714
 11
605.434666
 21
300.661317
  0
LINE
  8
1
 62
7
  6
CONTINUOUS
 10
567.659332
 20
277.000000
 11
558.259332
 21
277.000000
  0
LINE
  8
1
 62
7
  6
CONTINUOUS
 10
568.259332
 20
277.600000
 11
567.659332
 21
277.000000
  0
LINE
  8
1
 62
7
  6
CONTINUOUS
 10
558.259332
 20
299.000000
 11
567.659332
 21
299.000000
  0
LINE
  8
1
 62
7
  6
CONTINUOUS
 10
568.259332
 20
298.400000
 11
568.259332
 21
277.600000
  0
LINE
  8
1
 62
7
  6
CONTINUOUS
 10
567.659332
 20
299.000000
 11
568.259332
 21
298.400000
  0
LINE
  8
1
 62
7
  6
CONTINUOUS
 10
590.951351
 20
293.000000
 11
568.259332
 21
293.000000
  0
LINE
  8
1
 62
7
  6
CONTINUOUS
 10
590.951351
 20
283.000000
 11
568.259332
 21
283.000000
  0
LINE
  8
1
 62
7
  6
CONTINUOUS
 10
567.659332
 20
299.000000
 11
567.659332
 21
277.000000
  0
LINE
  8
1
 62
7
  6
DASHDOT
 10
697.096999
 20
333.500000
 11
697.096999
 21
242.500000
  0
LINE
  8
1
 62
7
  6
CONTINUOUS
 10
588.434666
 20
305.570714
 11
608.434666
 21
305.570714
  0
LINE
  8
1
 62
7
  6
CONTINUOUS
 10
606.434666
 20
312.570714
 11
590.434666
 21
312.570714
  0
LINE
  8
1
 62
7
  6
CONTINUOUS
 10
606.434666
 20
312.570714
 11
608.434666
 21
305.570714
  0
LINE
  8
1
 62
7
  6
CONTINUOUS
 10
588.434666
 20
303.870714
 11
588.434666
 21
305.570714
  0
LINE
  8
1
 62
7
  6
CONTINUOUS
 10
588.734666
 20
303.570714
 11
588.434666
 21
303.870714
  0
LINE
  8
1
 62
7
  6
CONTINUOUS
 10
608.434666
 20
305.570714
 11
608.434666
 21
303.870714
  0
LINE
  8
1
 62
7
  6
CONTINUOUS
 10
608.134666
 20
303.570714
 11
588.734666
 21
303.570714
  0
LINE
  8
1
 62
7
  6
CONTINUOUS
 10
608.434666
 20
303.870714
 11
608.134666
 21
303.570714
  0
LINE
  8
1
 62
7
  6
CONTINUOUS
 10
608.434666
 20
303.870714
 11
588.434666
 21
303.870714
  0
ARC
  8
1
 62
7
  6
CONTINUOUS
 10
577.965128
 20
313.154798
 40
1.309576
 50
-143.424427
 51
-112.296643
  0
ARC
  8
1
 62
7
  6
CONTINUOUS
 10
578.358413
 20
313.465579
 40
1.810665
 50
-168.112732
 51
-142.942562
  0
ARC
  8
1
 62
7
  6
CONTINUOUS
 10
579.188930
 20
313.684578
 40
2.668833
 50
173.465667
 51
-167.184667
  0
ARC
  8
1
 62
7
  6
CONTINUOUS
 10
579.905961
 20
313.637662
 40
3.386726
 50
157.656960
 51
174.057564
  0
ARC
  8
1
 62
7
  6
CONTINUOUS
 10
579.971408
 20
313.625911
 40
3.451754
 50
141.799957
 51
157.889520
  0
ARC
  8
1
 62
7
  6
CONTINUOUS
 10
579.468417
 20
314.017459
 40
2.814342
 50
123.391318
 51
141.731682
  0
ARC
  8
1
 62
7
  6
CONTINUOUS
 10
578.974378
 20
314.741380
 40
1.938071
 50
99.484112
 51
122.975182
  0
ARC
  8
1
 62
7
  6
CONTINUOUS
 10
578.857324
 20
315.311871
 40
1.356260
 50
68.547232
 51
98.577839
  0
ARC
  8
1
 62
7
  6
CONTINUOUS
 10
578.856499
 20
315.362507
 40
1.309576
 50
36.575573
 51
67.703357
  0
ARC
  8
1
 62
7
  6
CONTINUOUS
 10
578.463214
 20
315.051726
 40
1.810665
 50
11.887268
 51
37.057438
  0
ARC
  8
1
 62
7
  6
CONTINUOUS
 10
577.632697
 20
314.832727
 40
2.668833
 50
-6.534333
 51
12.815333
  0
ARC
  8
1
 62
7
  6
CONTINUOUS
 10
576.915665
 20
314.879643
 40
3.386726
 50
-22.343040
 51
-5.942436
  0
ARC
  8
1
 62
7
  6
CONTINUOUS
 10
576.850219
 20
314.891394
 40
3.451754
 50
-38.200043
 51
-22.110480
  0
ARC
  8
1
 62
7
  6
CONTINUOUS
 10
577.353209
 20
314.499846
 40
2.814342
 50
-56.608682
 51
-38.268318
  0
ARC
  8
1
 62
7
  6
CONTINUOUS
 10
577.847249
 20
313.775925
 40
1.938071
 50
-80.515888
 51
-57.024818
  0
ARC
  8
1
 62
7
  6
CONTINUOUS
 10
577.964303
 20
313.205434
 40
1.356260
 50
-111.452768
 51
-81.422161
  0
ARC
  8
1
 62
7
  6
CONTINUOUS
 10
577.463502
 20
313.871061
 40
0.785746
 50
-143.424427
 51
-112.296644
  0
ARC
  8
1
 62
7
  6
CONTINUOUS
 10
577.699473
 20
314.057529
 40
1.086399
 50
-168.112732
 51
-142.942562
  0
ARC
  8
1
 62
7
  6
CONTINUOUS
 10
578.197783
 20
314.188929
 40
1.601300
 50
173.465667
 51
-167.184667
  0
ARC
  8
1
 62
7
  6
CONTINUOUS
 10
578.628002
 20
314.160780
 40
2.032035
 50
157.656960
 51
174.057564
  0
ARC
  8
1
 62
7
  6
CONTINUOUS
 10
578.667270
 20
314.153729
 40
2.071053
 50
141.799957
 51
157.889519
  0
ARC
  8
1
 62
7
  6
CONTINUOUS
 10
578.365476
 20
314.388657
 40
1.688605
 50
123.391318
 51
141.731682
  0
ARC
  8
1
 62
7
  6
CONTINUOUS
 10
578.069052
 20
314.823010
 40
1.162843
 50
99.484112
 51
122.975182
  0
ARC
  8
1
 62
7
  6
CONTINUOUS
 10
577.998820
 20
315.165305
 40
0.813756
 50
68.547232
 51
98.577839
  0
ARC
  8
1
 62
7
  6
CONTINUOUS
 10
577.998325
 20
315.195687
 40
0.785746
 50
36.575573
 51
67.703357
  0
ARC
  8
1
 62
7
  6
CONTINUOUS
 10
577.762353
 20
315.009218
 40
1.086399
 50
11.887268
 51
37.057437
  0
ARC
  8
1
 62
7
  6
CONTINUOUS
 10
577.264043
 20
314.877818
 40
1.601300
 50
-6.534333
 51
12.815333
  0
ARC
  8
1
 62
7
  6
CONTINUOUS
 10
576.833824
 20
314.905968
 40
2.032036
 50
-22.343040
 51
-5.942436
  0
ARC
  8
1
 62
7
  6
CONTINUOUS
 10
576.794557
 20
314.913018
 40
2.071053
 50
-38.200043
 51
-22.110480
  0
ARC
  8
1
 62
7
  6
CONTINUOUS
 10
577.096351
 20
314.678090
 40
1.688605
 50
-56.608682
 51
-38.268318
  0
ARC
  8
1
 62
7
  6
CONTINUOUS
 10
577.392775
 20
314.243737
 40
1.162843
 50
-80.515888
 51
-57.024818
  0
ARC
  8
1
 62
7
  6
CONTINUOUS
 10
577.463007
 20
313.901443
 40
0.813756
 50
-111.452768
 51
-81.422161
  0
LINE
  8
1
 62
7
  6
CONTINUOUS
 10
592.943344
 20
311.040127
 11
579.288976
 21
316.598333
  0
LINE
  8
1
 62
7
  6
CONTINUOUS
 10
591.058222
 20
306.409110
 11
577.468272
 21
311.941094
  0
LINE
  8
1
 62
7
  6
DASHDOT
 10
595.490501
 20
307.304078
 11
574.920382
 21
315.677441
  0
LINE
  8
1
 62
7
  6
CONTINUOUS
 10
588.922590
 20
307.278450
 11
588.434666
 21
305.570714
  0
LINE
  8
1
 62
7
  6
CONTINUOUS
 10
590.434666
 20
312.570714
 11
590.304288
 21
312.114392
  0
ARC
  8
1
 62
7
  6
CONTINUOUS
 10
592.446465
 20
309.828468
 40
1.309583
 50
36.574805
 51
67.702369
  0
ARC
  8
1
 62
7
  6
CONTINUOUS
 10
592.053166
 20
309.517684
 40
1.810684
 50
11.886800
 51
37.056699
  0
ARC
  8
1
 62
7
  6
CONTINUOUS
 10
591.222647
 20
309.298691
 40
2.668852
 50
-6.534644
 51
12.814854
  0
ARC
  8
1
 62
7
  6
CONTINUOUS
 10
590.505627
 20
309.345610
 40
3.386734
 50
-22.343274
 51
-5.942760
  0
ARC
  8
1
 62
7
  6
CONTINUOUS
 10
590.440193
 20
309.357358
 40
3.451750
 50
-38.200236
 51
-22.110722
  0
ARC
  8
1
 62
7
  6
CONTINUOUS
 10
590.943185
 20
308.965806
 40
2.814333
 50
-56.608845
 51
-38.268514
  0
ARC
  8
1
 62
7
  6
CONTINUOUS
 10
591.437220
 20
308.241887
 40
1.938067
 50
-80.516002
 51
-57.024982
  0
ARC
  8
1
 62
7
  6
CONTINUOUS
 10
591.554272
 20
307.671399
 40
1.356260
 50
-111.452776
 51
-81.422271
  0
CIRCLE
  8
1
 62
7
  6
CONTINUOUS
 10
595.684666
 20
283.236860
 40
1.050000
  0
CIRCLE
  8
1
 62
7
  6
CONTINUOUS
 10
601.184666
 20
292.763140
 40
1.050000
  0
LINE
  8
1
 62
7
  6
DASHDOT
 10
598.434666
 20
277.000000
 11
598.434666
 21
314.570714
  0
LINE
  8
1
 62
7
  6
DASHDOT
 10
628.096999
 20
307.500000
 11
652.096999
 21
307.500000
  0
LINE
  8
1
 62
7
  6
DASHDOT
 10
640.096999
 20
295.500000
 11
640.096999
 21
319.500000
  0
CIRCLE
  8
1
 62
7
  6
CONTINUOUS
 10
640.096999
 20
307.500000
 40
8.500000
  0
CIRCLE
  8
1
 62
7
  6
CONTINUOUS
 10
642.846999
 20
312.263140
 40
1.050000
  0
CIRCLE
  8
1
 62
7
  6
CONTINUOUS
 10
637.346999
 20
302.736860
 40
1.050000
  0
CIRCLE
  8
1
 62
7
  6
CONTINUOUS
 10
640.096999
 20
307.500000
 40
8.000000
  0
LINE
  8
1
 62
7
  6
DASHDOT
 10
652.096999
 20
268.500000
 11
628.096999
 21
268.500000
  0
LINE
  8
1
 62
7
  6
DASHDOT
 10
640.096999
 20
280.500000
 11
640.096999
 21
256.500000
  0
CIRCLE
  8
1
 62
7
  6
CONTINUOUS
 10
640.096999
 20
268.500000
 40
8.500000
  0
CIRCLE
  8
1
 62
7
  6
CONTINUOUS
 10
637.346999
 20
263.736860
 40
1.050000
  0
CIRCLE
  8
1
 62
7
  6
CONTINUOUS
 10
642.846999
 20
273.263140
 40
1.050000
  0
CIRCLE
  8
1
 62
7
  6
CONTINUOUS
 10
640.096999
 20
268.500000
 40
8.000000
  0
ARC
  8
1
 62
7
  6
CONTINUOUS
 10
640.096999
 20
268.500000
 40
10.000000
 50
-146.870213
 51
-115.841933
  0
ARC
  8
1
 62
7
  6
CONTINUOUS
 10
640.096999
 20
268.500000
 40
10.000000
 50
83.293551
 51
96.706449
  0
ARC
  8
1
 62
7
  6
CONTINUOUS
 10
640.096999
 20
268.500000
 40
10.000000
 50
-64.158067
 51
-33.129787
  0
ARC
  8
1
 62
7
  6
CONTINUOUS
 10
640.096999
 20
307.500000
 40
10.000000
 50
115.841933
 51
146.870213
  0
ARC
  8
1
 62
7
  6
CONTINUOUS
 10
640.096999
 20
307.500000
 40
10.000000
 50
33.129787
 51
64.158067
  0
ARC
  8
1
 62
7
  6
CONTINUOUS
 10
640.096999
 20
307.500000
 40
10.000000
 50
-96.706449
 51
-83.293551
  0
LINE
  8
1
 62
7
  6
CONTINUOUS
 10
627.032068
 20
292.000000
 11
653.161930
 21
292.000000
  0
LINE
  8
1
 62
7
  6
CONTINUOUS
 10
627.032068
 20
284.000000
 11
653.161930
 21
284.000000
  0
LINE
  8
1
 62
7
  6
CONTINUOUS
 10
629.168597
 20
283.000000
 11
651.025401
 21
283.000000
  0
LINE
  8
1
 62
7
  6
CONTINUOUS
 10
629.168597
 20
293.000000
 11
651.025401
 21
293.000000
  0
LINE
  8
1
 62
7
  6
DASHDOT
 10
681.759332
 20
277.000000
 11
681.759332
 21
299.000000
  0
CIRCLE
  8
1
 62
7
  6
CONTINUOUS
 10
679.009332
 20
283.236860
 40
1.050000
  0
CIRCLE
  8
1
 62
7
  6
CONTINUOUS
 10
684.509332
 20
292.763140
 40
1.050000
  0
LINE
  8
1
 62
7
  6
CONTINUOUS
 10
558.259332
 20
317.000000
 11
557.259332
 21
318.000000
  0
LINE
  8
1
 62
7
  6
CONTINUOUS
 10
557.259332
 20
318.000000
 11
541.259332
 21
318.000000
  0
LINE
  8
1
 62
7
  6
CONTINUOUS
 10
540.259332
 20
317.000000
 11
541.259332
 21
318.000000
  0
LINE
  8
1
 62
7
  6
CONTINUOUS
 10
558.259332
 20
259.000000
 11
558.259332
 21
317.000000
  0
LINE
  8
1
 62
7
  6
CONTINUOUS
 10
557.259332
 20
258.000000
 11
558.259332
 21
259.000000
  0
LINE
  8
1
 62
7
  6
CONTINUOUS
 10
540.259332
 20
317.000000
 11
540.259332
 21
259.000000
  0
LINE
  8
1
 62
7
  6
CONTINUOUS
 10
541.259332
 20
258.000000
 11
557.259332
 21
258.000000
  0
LINE
  8
1
 62
7
  6
CONTINUOUS
 10
540.259332
 20
259.000000
 11
541.259332
 21
258.000000
  0
LINE
  8
1
 62
7
  6
CONTINUOUS
 10
541.259332
 20
318.000000
 11
541.259332
 21
258.000000
  0
LINE
  8
1
 62
7
  6
CONTINUOUS
 10
557.259332
 20
258.000000
 11
557.259332
 21
318.000000
  0
LINE
  8
1
 62
7
  6
CONTINUOUS
 10
542.259332
 20
318.000000
 11
542.259332
 21
258.000000
  0
LINE
  8
1
 62
7
  6
CONTINUOUS
 10
556.259332
 20
258.000000
 11
556.259332
 21
318.000000
  0
LINE
  8
1
 62
7
  6
CONTINUOUS
 10
552.992091
 20
268.865132
 11
556.259332
 21
268.865132
  0
LINE
  8
1
 62
7
  6
CONTINUOUS
 10
556.259332
 20
266.865132
 11
547.750711
 21
266.865132
  0
LINE
  8
1
 62
7
  6
CONTINUOUS
 10
542.509332
 20
264.865132
 11
556.259332
 21
264.865132
  0
LINE
  8
1
 62
7
  6
CONTINUOUS
 10
556.259332
 20
262.865132
 11
542.259332
 21
262.865132
  0
LINE
  8
1
 62
7
  6
CONTINUOUS
 10
542.259332
 20
260.865132
 11
556.259332
 21
260.865132
  0
LINE
  8
1
 62
7
  6
CONTINUOUS
 10
556.259332
 20
258.865132
 11
542.259332
 21
258.865132
  0
LINE
  8
1
 62
7
  6
CONTINUOUS
 10
544.259332
 20
258.000000
 11
544.259332
 21
265.532895
  0
LINE
  8
1
 62
7
  6
CONTINUOUS
 10
546.259332
 20
266.296053
 11
546.259332
 21
258.000000
  0
LINE
  8
1
 62
7
  6
CONTINUOUS
 10
548.259332
 20
258.000000
 11
548.259332
 21
267.059211
  0
LINE
  8
1
 62
7
  6
CONTINUOUS
 10
550.259332
 20
267.822368
 11
550.259332
 21
258.000000
  0
LINE
  8
1
 62
7
  6
CONTINUOUS
 10
552.259332
 20
258.000000
 11
552.259332
 21
268.585526
  0
LINE
  8
1
 62
7
  6
CONTINUOUS
 10
554.259332
 20
269.348684
 11
554.259332
 21
258.000000
  0
LINE
  8
1
 62
7
  6
CONTINUOUS
 10
545.526573
 20
307.134868
 11
542.259332
 21
307.134868
  0
LINE
  8
1
 62
7
  6
CONTINUOUS
 10
542.259332
 20
309.134868
 11
550.767953
 21
309.134868
  0
LINE
  8
1
 62
7
  6
CONTINUOUS
 10
556.009332
 20
311.134868
 11
542.259332
 21
311.134868
  0
LINE
  8
1
 62
7
  6
CONTINUOUS
 10
542.259332
 20
313.134868
 11
556.259332
 21
313.134868
  0
LINE
  8
1
 62
7
  6
CONTINUOUS
 10
556.259332
 20
315.134868
 11
542.259332
 21
315.134868
  0
LINE
  8
1
 62
7
  6
CONTINUOUS
 10
542.259332
 20
317.134868
 11
556.259332
 21
317.134868
  0
LINE
  8
1
 62
7
  6
CONTINUOUS
 10
554.259332
 20
318.000000
 11
554.259332
 21
310.467105
  0
LINE
  8
1
 62
7
  6
CONTINUOUS
 10
552.259332
 20
309.703947
 11
552.259332
 21
318.000000
  0
LINE
  8
1
 62
7
  6
CONTINUOUS
 10
550.259332
 20
318.000000
 11
550.259332
 21
308.940789
  0
LINE
  8
1
 62
7
  6
CONTINUOUS
 10
548.259332
 20
308.177632
 11
548.259332
 21
318.000000
  0
LINE
  8
1
 62
7
  6
CONTINUOUS
 10
546.259332
 20
318.000000
 11
546.259332
 21
307.414474
  0
LINE
  8
1
 62
7
  6
CONTINUOUS
 10
544.259332
 20
306.651316
 11
544.259332
 21
318.000000
  0
LINE
  8
1
 62
7
  6
DASHDOT
 10
712.434666
 20
277.000000
 11
712.434666
 21
299.000000
  0
CIRCLE
  8
1
 62
7
  6
CONTINUOUS
 10
709.684666
 20
283.236860
 40
1.050000
  0
CIRCLE
  8
1
 62
7
  6
CONTINUOUS
 10
715.184666
 20
292.763140
 40
1.050000
  0
LINE
  8
1
 62
7
  6
DASHDOT
 10
742.096999
 20
307.500000
 11
766.096999
 21
307.500000
  0
LINE
  8
1
 62
7
  6
DASHDOT
 10
754.096999
 20
295.500000
 11
754.096999
 21
319.500000
  0
CIRCLE
  8
1
 62
7
  6
CONTINUOUS
 10
754.096999
 20
307.500000
 40
8.500000
  0
CIRCLE
  8
1
 62
7
  6
CONTINUOUS
 10
756.846999
 20
312.263140
 40
1.050000
  0
CIRCLE
  8
1
 62
7
  6
CONTINUOUS
 10
751.346999
 20
302.736860
 40
1.050000
  0
CIRCLE
  8
1
 62
7
  6
CONTINUOUS
 10
754.096999
 20
307.500000
 40
8.000000
  0
LINE
  8
1
 62
7
  6
DASHDOT
 10
766.096999
 20
268.500000
 11
742.096999
 21
268.500000
  0
LINE
  8
1
 62
7
  6
DASHDOT
 10
754.096999
 20
280.500000
 11
754.096999
 21
256.500000
  0
CIRCLE
  8
1
 62
7
  6
CONTINUOUS
 10
754.096999
 20
268.500000
 40
8.500000
  0
CIRCLE
  8
1
 62
7
  6
CONTINUOUS
 10
751.346999
 20
263.736860
 40
1.050000
  0
CIRCLE
  8
1
 62
7
  6
CONTINUOUS
 10
756.846999
 20
273.263140
 40
1.050000
  0
CIRCLE
  8
1
 62
7
  6
CONTINUOUS
 10
754.096999
 20
268.500000
 40
8.000000
  0
ARC
  8
1
 62
7
  6
CONTINUOUS
 10
754.096999
 20
268.500000
 40
10.000000
 50
-146.870213
 51
-115.841933
  0
ARC
  8
1
 62
7
  6
CONTINUOUS
 10
754.096999
 20
268.500000
 40
10.000000
 50
83.293551
 51
96.706449
  0
ARC
  8
1
 62
7
  6
CONTINUOUS
 10
754.096999
 20
268.500000
 40
10.000000
 50
-64.158067
 51
-33.129787
  0
ARC
  8
1
 62
7
  6
CONTINUOUS
 10
754.096999
 20
307.500000
 40
10.000000
 50
115.841933
 51
146.870213
  0
ARC
  8
1
 62
7
  6
CONTINUOUS
 10
754.096999
 20
307.500000
 40
10.000000
 50
33.129787
 51
64.158067
  0
ARC
  8
1
 62
7
  6
CONTINUOUS
 10
754.096999
 20
307.500000
 40
10.000000
 50
-96.706449
 51
-83.293551
  0
LINE
  8
1
 62
7
  6
CONTINUOUS
 10
741.032068
 20
292.000000
 11
767.161930
 21
292.000000
  0
LINE
  8
1
 62
7
  6
CONTINUOUS
 10
741.032068
 20
284.000000
 11
767.161930
 21
284.000000
  0
LINE
  8
1
 62
7
  6
CONTINUOUS
 10
765.025401
 20
293.000000
 11
743.168597
 21
293.000000
  0
LINE
  8
1
 62
7
  6
CONTINUOUS
 10
766.093665
 20
292.500000
 11
742.100333
 21
292.500000
  0
LINE
  8
1
 62
7
  6
CONTINUOUS
 10
765.025401
 20
283.000000
 11
743.168597
 21
283.000000
  0
LINE
  8
1
 62
7
  6
CONTINUOUS
 10
766.093665
 20
283.500000
 11
742.100333
 21
283.500000
  0
CIRCLE
  8
1
 62
7
  6
CONTINUOUS
 10
793.009332
 20
283.236860
 40
1.050000
  0
CIRCLE
  8
1
 62
7
  6
CONTINUOUS
 10
798.509332
 20
292.763140
 40
1.050000
  0
LINE
  8
1
 62
7
  6
CONTINUOUS
 10
634.000000
 20
106.000000
 11
810.000000
 21
106.000000
  0
LINE
  8
1
 62
7
  6
CONTINUOUS
 10
634.000000
 20
106.000000
 11
634.000000
 21
34.000000
  0
LINE
  8
1
 62
7
  6
CONTINUOUS
 10
634.000000
 20
86.000000
 11
690.000000
 21
86.000000
  0
LINE
  8
1
 62
7
  6
CONTINUOUS
 10
634.000000
 20
58.000000
 11
810.000000
 21
58.000000
  0
TEXT
  8
1
 62
7
  6
CONTINUOUS
 10
771.000000
 20
39.000000
 40
6.000000
 41
1.000000
  1
1/1
  7
KANJI
 50
0.000000
 51
0.000000
  0
TEXT
  8
1
 62
7
  6
CONTINUOUS
 10
797.000000
 20
39.000000
 40
6.000000
 41
1.000000
  1
-
  7
KANJI
 50
0.000000
 51
0.000000
  0
TEXT
  8
1
 62
7
  6
CONTINUOUS
 10
659.000000
 20
39.000000
 40
6.000000
 41
0.578703
  1
－
  7
KANJI
 50
0.000000
 51
0.000000
  0
TEXT
  8
1
 62
7
  6
CONTINUOUS
 10
662.754497
 20
89.000000
 40
6.000000
 41
0.578703
  1
－
  7
KANJI
 50
0.000000
 51
0.000000
  0
LINE
  8
1
 62
7
  6
CONTINUOUS
 10
0.000000
 20
0.000000
 11
20.000000
 21
0.000000
  0
LINE
  8
1
 62
7
  6
CONTINUOUS
 10
0.000000
 20
0.000000
 11
0.000000
 21
20.000000
  0
LINE
  8
1
 62
7
  6
CONTINUOUS
 10
30.000000
 20
568.000000
 11
810.000000
 21
568.000000
  0
LINE
  8
1
 62
7
  6
CONTINUOUS
 10
30.000000
 20
34.000000
 11
810.000000
 21
34.000000
  0
LINE
  8
1
 62
7
  6
CONTINUOUS
 10
30.000000
 20
34.000000
 11
30.000000
 21
568.000000
  0
LINE
  8
1
 62
7
  6
CONTINUOUS
 10
30.000000
 20
34.000000
 11
178.000000
 21
34.000000
  0
LINE
  8
1
 62
7
  6
CONTINUOUS
 10
30.000000
 20
34.000000
 11
30.000000
 21
121.600000
  0
TEXT
  8
1
 62
7
  6
CONTINUOUS
 10
91.800000
 20
24.800000
 40
6.400000
 41
1.000000
  1
1
  7
KANJI
 50
0.000000
 51
0.000000
  0
LINE
  8
1
 62
7
  6
CONTINUOUS
 10
160.000000
 20
34.000000
 11
160.000000
 21
28.000000
  0
TEXT
  8
1
 62
7
  6
CONTINUOUS
 10
21.800000
 20
75.300000
 40
6.400000
 41
1.000000
  1
F
  7
KANJI
 50
0.000000
 51
0.000000
  0
LINE
  8
1
 62
7
  6
CONTINUOUS
 10
30.000000
 20
123.000000
 11
24.000000
 21
123.000000
  0
TEXT
  8
1
 62
7
  6
CONTINUOUS
 10
21.800000
 20
164.300000
 40
6.400000
 41
1.000000
  1
E
  7
KANJI
 50
0.000000
 51
0.000000
  0
LINE
  8
1
 62
7
  6
CONTINUOUS
 10
30.000000
 20
212.000000
 11
24.000000
 21
212.000000
  0
TEXT
  8
1
 62
7
  6
CONTINUOUS
 10
221.800000
 20
24.800000
 40
6.400000
 41
1.000000
  1
2
  7
KANJI
 50
0.000000
 51
0.000000
  0
LINE
  8
1
 62
7
  6
CONTINUOUS
 10
290.000000
 20
34.000000
 11
290.000000
 21
28.000000
  0
TEXT
  8
1
 62
7
  6
CONTINUOUS
 10
351.800000
 20
24.800000
 40
6.400000
 41
1.000000
  1
3
  7
KANJI
 50
0.000000
 51
0.000000
  0
TEXT
  8
1
 62
7
  6
CONTINUOUS
 10
21.800000
 20
431.300000
 40
6.400000
 41
1.000000
  1
B
  7
KANJI
 50
0.000000
 51
0.000000
  0
TEXT
  8
1
 62
7
  6
CONTINUOUS
 10
21.800000
 20
253.300000
 40
6.400000
 41
1.000000
  1
D
  7
KANJI
 50
0.000000
 51
0.000000
  0
LINE
  8
1
 62
7
  6
CONTINUOUS
 10
24.000000
 20
301.000000
 11
36.000000
 21
301.000000
  0
LINE
  8
1
 62
7
  6
CONTINUOUS
 10
36.000000
 20
301.000000
 11
24.000000
 21
301.000000
  0
TEXT
  8
1
 62
7
  6
CONTINUOUS
 10
21.800000
 20
342.300000
 40
6.400000
 41
1.000000
  1
C
  7
KANJI
 50
0.000000
 51
0.000000
  0
LINE
  8
1
 62
7
  6
CONTINUOUS
 10
30.000000
 20
390.000000
 11
24.000000
 21
390.000000
  0
LINE
  8
1
 62
7
  6
CONTINUOUS
 10
30.000000
 20
479.000000
 11
24.000000
 21
479.000000
  0
TEXT
  8
1
 62
7
  6
CONTINUOUS
 10
21.800000
 20
520.300000
 40
6.400000
 41
1.000000
  1
A
  7
KANJI
 50
0.000000
 51
0.000000
  0
TEXT
  8
1
 62
7
  6
CONTINUOUS
 10
91.800000
 20
570.800000
 40
6.400000
 41
1.000000
  1
1
  7
KANJI
 50
0.000000
 51
0.000000
  0
LINE
  8
1
 62
7
  6
CONTINUOUS
 10
160.000000
 20
568.000000
 11
160.000000
 21
574.000000
  0
TEXT
  8
1
 62
7
  6
CONTINUOUS
 10
221.800000
 20
570.800000
 40
6.400000
 41
1.000000
  1
2
  7
KANJI
 50
0.000000
 51
0.000000
  0
LINE
  8
1
 62
7
  6
CONTINUOUS
 10
290.000000
 20
568.000000
 11
290.000000
 21
574.000000
  0
TEXT
  8
1
 62
7
  6
CONTINUOUS
 10
351.800000
 20
570.800000
 40
6.400000
 41
1.000000
  1
3
  7
KANJI
 50
0.000000
 51
0.000000
  0
LINE
  8
1
 62
7
  6
CONTINUOUS
 10
420.000000
 20
562.000000
 11
420.000000
 21
574.000000
  0
LINE
  8
1
 62
7
  6
CONTINUOUS
 10
810.000000
 20
34.000000
 11
810.000000
 21
568.000000
  0
TEXT
  8
1
 62
7
  6
CONTINUOUS
 10
773.280000
 20
51.200000
 40
5.600000
 41
0.600000
  1
Page
  7
KANJI
 50
0.000000
 51
0.000000
  0
LINE
  8
1
 62
7
  6
CONTINUOUS
 10
634.000000
 20
50.000000
 11
810.000000
 21
50.000000
  0
LINE
  8
1
 62
7
  6
CONTINUOUS
 10
714.000000
 20
74.000000
 11
810.000000
 21
74.000000
  0
LINE
  8
1
 62
7
  6
CONTINUOUS
 10
690.000000
 20
90.000000
 11
810.000000
 21
90.000000
  0
LINE
  8
1
 62
7
  6
CONTINUOUS
 10
770.000000
 20
34.000000
 11
770.000000
 21
58.000000
  0
LINE
  8
1
 62
7
  6
CONTINUOUS
 10
690.000000
 20
34.000000
 11
690.000000
 21
106.000000
  0
TEXT
  8
1
 62
7
  6
CONTINUOUS
 10
481.800000
 20
24.800000
 40
6.400000
 41
1.000000
  1
4
  7
KANJI
 50
0.000000
 51
0.000000
  0
LINE
  8
1
 62
7
  6
CONTINUOUS
 10
550.000000
 20
34.000000
 11
550.000000
 21
28.000000
  0
TEXT
  8
1
 62
7
  6
CONTINUOUS
 10
611.800000
 20
24.800000
 40
6.400000
 41
1.000000
  1
5
  7
KANJI
 50
0.000000
 51
0.000000
  0
LINE
  8
1
 62
7
  6
CONTINUOUS
 10
680.000000
 20
34.000000
 11
680.000000
 21
28.000000
  0
TEXT
  8
1
 62
7
  6
CONTINUOUS
 10
741.800000
 20
24.800000
 40
6.400000
 41
1.000000
  1
6
  7
KANJI
 50
0.000000
 51
0.000000
  0
TEXT
  8
1
 62
7
  6
CONTINUOUS
 10
690.240000
 20
95.200000
 40
5.600000
 41
0.600000
  1
PRODUCT
  7
KANJI
 50
0.000000
 51
0.000000
  0
TEXT
  8
1
 62
7
  6
CONTINUOUS
 10
692.400000
 20
70.800000
 40
6.400000
 41
0.600000
  1
TITLE
  7
KANJI
 50
0.000000
 51
0.000000
  0
TEXT
  8
1
 62
7
  6
CONTINUOUS
 10
643.520000
 20
51.200000
 40
5.600000
 41
0.752539
  1
Product No.
  7
KANJI
 50
0.000000
 51
0.000000
  0
LINE
  8
1
 62
7
  6
DASHDOT
 10
644.000000
 20
69.000000
 11
660.000000
 21
69.000000
  0
CIRCLE
  8
1
 62
7
  6
CONTINUOUS
 10
652.000000
 20
69.000000
 40
4.000000
  0
CIRCLE
  8
1
 62
7
  6
CONTINUOUS
 10
652.000000
 20
69.000000
 40
6.000000
  0
LINE
  8
1
 62
7
  6
DASHDOT
 10
652.000000
 20
61.000000
 11
652.000000
 21
77.000000
  0
TEXT
  8
1
 62
7
  6
CONTINUOUS
 10
636.000000
 20
79.200000
 40
4.800000
 41
0.600000
  1
PROJECTION
  7
KANJI
 50
0.000000
 51
0.000000
  0
LINE
  8
1
 62
7
  6
CONTINUOUS
 10
668.000000
 20
65.000000
 11
668.000000
 21
73.000000
  0
LINE
  8
1
 62
7
  6
CONTINUOUS
 10
668.000000
 20
73.000000
 11
678.000000
 21
75.000000
  0
LINE
  8
1
 62
7
  6
DASHDOT
 10
666.000000
 20
69.000000
 11
680.000000
 21
69.000000
  0
LINE
  8
1
 62
7
  6
CONTINUOUS
 10
678.000000
 20
63.000000
 11
678.000000
 21
75.000000
  0
LINE
  8
1
 62
7
  6
CONTINUOUS
 10
668.000000
 20
65.000000
 11
678.000000
 21
63.000000
  0
TEXT
  8
1
 62
7
  6
CONTINUOUS
 10
636.000000
 20
99.200000
 40
4.800000
 41
0.600000
  1
QUANTITY
  7
KANJI
 50
0.000000
 51
0.000000
  0
LINE
  8
1
 62
7
  6
CONTINUOUS
 10
714.000000
 20
58.000000
 11
714.000000
 21
106.000000
  0
TEXT
  8
1
 62
7
  6
CONTINUOUS
 10
711.520000
 20
51.200000
 40
5.600000
 41
0.752539
  1
Drawing No.
  7
KANJI
 50
0.000000
 51
0.000000
  0
LINE
  8
1
 62
7
  6
CONTINUOUS
 10
790.000000
 20
34.000000
 11
790.000000
 21
58.000000
  0
TEXT
  8
1
 62
7
  6
CONTINUOUS
 10
811.800000
 20
75.300000
 40
6.400000
 41
1.000000
  1
F
  7
KANJI
 50
0.000000
 51
0.000000
  0
TEXT
  8
1
 62
7
  6
CONTINUOUS
 10
793.280000
 20
51.200000
 40
5.600000
 41
0.823046
  1
Rev.
  7
KANJI
 50
0.000000
 51
0.000000
  0
LINE
  8
1
 62
7
  6
CONTINUOUS
 10
810.000000
 20
123.000000
 11
816.000000
 21
123.000000
  0
TEXT
  8
1
 62
7
  6
CONTINUOUS
 10
811.800000
 20
164.300000
 40
6.400000
 41
1.000000
  1
E
  7
KANJI
 50
0.000000
 51
0.000000
  0
LINE
  8
1
 62
7
  6
CONTINUOUS
 10
810.000000
 20
212.000000
 11
816.000000
 21
212.000000
  0
TEXT
  8
1
 62
7
  6
CONTINUOUS
 10
481.800000
 20
570.800000
 40
6.400000
 41
1.000000
  1
4
  7
KANJI
 50
0.000000
 51
0.000000
  0
LINE
  8
1
 62
7
  6
CONTINUOUS
 10
550.000000
 20
568.000000
 11
550.000000
 21
574.000000
  0
TEXT
  8
1
 62
7
  6
CONTINUOUS
 10
611.800000
 20
570.800000
 40
6.400000
 41
1.000000
  1
5
  7
KANJI
 50
0.000000
 51
0.000000
  0
LINE
  8
1
 62
7
  6
CONTINUOUS
 10
680.000000
 20
568.000000
 11
680.000000
 21
574.000000
  0
TEXT
  8
1
 62
7
  6
CONTINUOUS
 10
741.800000
 20
570.800000
 40
6.400000
 41
1.000000
  1
6
  7
KANJI
 50
0.000000
 51
0.000000
  0
TEXT
  8
1
 62
7
  6
CONTINUOUS
 10
811.800000
 20
431.300000
 40
6.400000
 41
1.000000
  1
B
  7
KANJI
 50
0.000000
 51
0.000000
  0
TEXT
  8
1
 62
7
  6
CONTINUOUS
 10
811.800000
 20
253.300000
 40
6.400000
 41
1.000000
  1
D
  7
KANJI
 50
0.000000
 51
0.000000
  0
LINE
  8
1
 62
7
  6
CONTINUOUS
 10
804.000000
 20
301.000000
 11
816.000000
 21
301.000000
  0
TEXT
  8
1
 62
7
  6
CONTINUOUS
 10
811.800000
 20
342.300000
 40
6.400000
 41
1.000000
  1
C
  7
KANJI
 50
0.000000
 51
0.000000
  0
LINE
  8
1
 62
7
  6
CONTINUOUS
 10
810.000000
 20
390.000000
 11
816.000000
 21
390.000000
  0
LINE
  8
1
 62
7
  6
CONTINUOUS
 10
810.000000
 20
479.000000
 11
816.000000
 21
479.000000
  0
TEXT
  8
1
 62
7
  6
CONTINUOUS
 10
811.800000
 20
520.300000
 40
6.400000
 41
1.000000
  1
A
  7
KANJI
 50
0.000000
 51
0.000000
  0
LINE
  8
1
 62
7
  6
CONTINUOUS
 10
820.000000
 20
-0.065413
 11
840.000000
 21
-0.065413
  0
LINE
  8
1
 62
7
  6
CONTINUOUS
 10
840.000000
 20
-0.065413
 11
840.000000
 21
19.934587
  0
LINE
  8
1
 62
7
  6
CONTINUOUS
 10
0.000000
 20
594.000000
 11
20.000000
 21
594.000000
  0
LINE
  8
1
 62
7
  6
CONTINUOUS
 10
0.000000
 20
574.000000
 11
0.000000
 21
594.000000
  0
LINE
  8
1
 62
7
  6
CONTINUOUS
 10
820.000000
 20
594.000000
 11
840.000000
 21
594.000000
  0
LINE
  8
1
 62
7
  6
CONTINUOUS
 10
840.000000
 20
573.934587
 11
840.000000
 21
594.000000
  0
LINE
  8
1
 62
7
  6
DASHDOT
 10
808.601000
 20
288.000000
 11
535.259332
 21
288.000000
  0
TEXT
  8
1
 62
7
  6
CONTINUOUS
 10
718.000000
 20
94.500000
 40
7.000000
 41
0.571429
  1
LABZ-42
  7
KANJI
 50
0.000000
 51
0.000000
  0
TEXT
  8
1
 62
7
  6
CONTINUOUS
 10
716.607000
 20
78.500000
 40
7.000000
 41
0.595238
  1
精密ラボジャッキ
  7
KANJI
 50
0.000000
 51
0.000000
  0
ENDSEC
  0
EOF
