  0
SECTION
  2
HEADER
  9
$ACADVER
  1
AC1004
  9
$INSBASE
 10
0.000000
 20
0.000000
  9
$EXTMIN
 10
0.000000
 20
0.000000
  9
$EXTMAX
 10
841.000000
 20
594.000000
  9
$LIMMIN
 10
0.000000
 20
0.000000
  9
$LIMMAX
 10
841.000000
 20
594.000000
  9
$VIEWCTR
 10
420.500000
 20
297.000000
  9
$VIEWSIZE
 40
594.000000
  9
$PEXTMIN
 10
0.000000
 20
0.000000
 30
0.000000
  9
$PEXTMAX
 10
841.000000
 20
594.000000
 30
0.000000
  9
$SNAPMODE
 70
     0
  9
$SNAPUNIT
 10
1.000000
 20
1.000000
  9
$SNAPBASE
 10
0.000000
 20
0.000000
  9
$SNAPANG
 50
0.000000
  9
$SNAPISOPAIR
 70
     0
  9
$SNAPSTYLE
 70
     0
  9
$GRIDMODE
 70
     0
  9
$GRIDUNIT
 10
0.000000
 20
0.000000
  9
$ORTHOMODE
 70
     0
  9
$REGENMODE
 70
     1
  9
$FILLMODE
 70
     1
  9
$QTEXTMODE
 70
     0
  9
$DRAGMODE
 70
     2
  9
$LTSCALE
 40
0.250000
  9
$OSMODE
 70
     0
  9
$ATTMODE
 70
     1
  9
$TEXTSIZE
 40
3.500000
  9
$TRACEWID
 40
0.050000
  9
$TEXTSTYLE
  7
STANDARD
  9
$CLAYER
  8
0
  9
$CELTYPE
  6
BYLAYER
  9
$CECOLOR
 62
   256
  9
$DIMSCALE
 40
1.000000
  9
$DIMASZ
 40
1.000000
  9
$DIMEXO
 40
0.000000
  9
$DIMDLI
 40
0.500000
  9
$DIMRND
 40
0.000000
  9
$DIMDLE
 40
0.000000
  9
$DIMEXE
 40
0.000000
  9
$DIMTP
 40
0.000000
  9
$DIMTM
 40
0.000000
  9
$DIMTXT
 40
3.500000
  9
$DIMCEN
 40
0.000000
  9
$DIMTSZ
 40
0.000000
  9
$DIMTOL
 70
     0
  9
$DIMLIM
 70
     0
  9
$DIMTIH
 70
     1
  9
$DIMTOH
 70
     1
  9
$DIMSE1
 70
     0
  9
$DIMSE2
 70
     0
  9
$DIMTAD
 70
     0
  9
$DIMZIN
 70
     0
  9
$DIMBLK
  1

  9
$DIMASO
 70
     0
  9
$DIMSHO
 70
     0
  9
$DIMPOST
  1

  9
$DIMAPOST
  1

  9
$DIMALT
 70
     0
  9
$DIMALTD
 70
     0
  9
$DIMALTF
 40
25.400000
  9
$DIMLFAC
 40
1.000000
  9
$DIMTOFL
 70
     0
  9
$DIMTVP
 40
0.000000
  9
$DIMTIX
 70
     0
  9
$DIMSOXD
 70
     0
  9
$DIMSAH
 70
     0
  9
$DIMBLKL
  1

  9
$DIMBLKR
  1

  9
$LUNITS
 70
     2
  9
$LUPREC
 70
     2
  9
$AXISMODE
 70
     0
  9
$AXISUNIT
 10
1.000000
 20
1.000000
  9
$SKETCHINC
 40
0.000000
  9
$FILLETRAD
 40
0.000000
  9
$AUNITS
 70
     1
  9
$AUPREC
 70
     2
  9
$MENU
  1
ACAD
  9
$ELEVATION
 40
0.000000
  9
$THICKNESS
 40
0.000000
  9
$VIEWDIR
 10
0.000000
 20
0.000000
 30
1.000000
  9
$LIMCHECK
 70
     1
  9
$BLIPMODE
 70
     1
  9
$CHAMFERA
 40
0.000000
  9
$CHAMFERB
 40
0.000000
  9
$FASTZOOM
 70
     1
  9
$SKPOLY
 70
     0
  9
$TDCREATE
 40
0.000000
  9
$TDUPDATE
 40
0.000000
  9
$TDINDWG
 40
0.000000
  9
$TDUSRTIMER
 40
0.000000
  9
$USRTIMER
 70
     1
  9
$ANGBASE
 50
0.000000
  9
$ANGDIR
 70
     0
  9
$PDMODE
 70
     0
  9
$PDSIZE
 40
0.000000
  9
$PLINEWID
 40
0.000000
  9
$COORDS
 70
     2
  9
$USERI1
 70
     0
  9
$USERI2
 70
     0
  9
$USERI3
 70
     0
  9
$USERI4
 70
     0
  9
$USERI5
 70
     0
  9
$USERR1
 40
0.000000
  9
$USERR2
 40
0.000000
  9
$USERR3
 40
0.000000
  9
$USERR4
 40
0.000000
  9
$USERR5
 40
0.000000
  0
ENDSEC
  0
SECTION
  2
TABLES
  0
TABLE
  2
LTYPE
 70
     5
  0
LTYPE
  2
CONTINUOUS
 70
    64
  3
Solid line
 72
    65
 73
     0
 40
0.0
  0
LTYPE
  2
HIDDEN
 70
    64
  3
------------------------
 72
    65
 73
     2
 40
12.6
 49
8.4
 49
-4.2
  0
LTYPE
  2
DOT
 70
    64
  3
････････････････････････
 72
    65
 73
     2
 40
8.0
 49
6.0
 49
-2.0
  0
LTYPE
  2
DASHDOT
 70
    64
  3
--･--･--･--･--･--･--･--
 72
    65
 73
     4
 40
50.5
 49
30.0
 49
-9.0
 49
2.5
 49
-9.0
  0
LTYPE
  2
DIVIDE
 70
    64
  3
--･･--･･--･･--･･--･･--
 72
    65
 73
     6
 40
58.0
 49
30.0
 49
-9.0
 49
2.5
 49
-5.0
 49
2.5
 49
-9.0
  0
LTYPE
  2
ACAD_ISO06W100
 70
    64
  3
____ ... ____ ... ____
 72
    65
 73
     8
 40
37.5
 49
24.0
 49
-3.0
 49
0.5
 49
-3.0
 49
0.5
 49
-3.0
 49
0.5
 49
-3.0
  0
LTYPE
  2
ACAD_ISO14W100
 70
    64
  3
__ . . . __ . . . __ . . . 
 72
    65
 73
     8
 40
25.5
 49
12.0
 49
-3.0
 49
0.5
 49
-3.0
 49
0.5
 49
-3.0
 49
0.5
 49
-3.0
  0
ENDTAB
  0
TABLE
  2
LAYER
 70
1
  0
LAYER
  2
1
 70
64
 62
7
  6
CONTINUOUS
  0
ENDTAB
  0
TABLE
  2
STYLE
 70
     2
  0
STYLE
  2
STANDARD
 70
    64
 40
0.0
 41
1.0
 50
0.0
 71
     0
 42
0.2
  3
TXT
  4

  0
STYLE
  2
KANJI
 70
    64
 40
0.0
 41
1.0
 50
0.0
 71
     0
 42
0.2
  3
TXT
  4
BIGFONT
  0
ENDTAB
  0
TABLE
  2
VIEW
 70
     0
  0
ENDTAB
  0
ENDSEC
  0
SECTION
  2
BLOCKS
  0
ENDSEC
  0
SECTION
  2
ENTITIES
  0
CIRCLE
  8
1
 62
7
  6
CONTINUOUS
 10
241.000000
 20
317.500000
 40
8.500000
  0
CIRCLE
  8
1
 62
7
  6
CONTINUOUS
 10
241.000000
 20
317.500000
 40
7.500000
  0
CIRCLE
  8
1
 62
7
  6
CONTINUOUS
 10
243.750000
 20
322.263140
 40
1.050000
  0
CIRCLE
  8
1
 62
7
  6
CONTINUOUS
 10
238.250000
 20
312.736860
 40
1.050000
  0
LINE
  8
1
 62
7
  6
DASHDOT
 10
241.000000
 20
307.000000
 11
241.000000
 21
328.500000
  0
CIRCLE
  8
1
 62
7
  6
CONTINUOUS
 10
241.000000
 20
292.500000
 40
8.500000
  0
CIRCLE
  8
1
 62
7
  6
CONTINUOUS
 10
241.000000
 20
292.500000
 40
7.500000
  0
LINE
  8
1
 62
7
  6
DASHDOT
 10
241.000000
 20
303.000000
 11
241.000000
 21
281.500000
  0
CIRCLE
  8
1
 62
7
  6
CONTINUOUS
 10
238.250000
 20
287.736860
 40
1.050000
  0
CIRCLE
  8
1
 62
7
  6
CONTINUOUS
 10
243.750000
 20
297.263140
 40
1.050000
  0
CIRCLE
  8
1
 62
7
  6
CONTINUOUS
 10
214.832272
 20
305.000000
 40
8.500000
  0
CIRCLE
  8
1
 62
7
  6
CONTINUOUS
 10
214.832272
 20
305.000000
 40
7.500000
  0
CIRCLE
  8
1
 62
7
  6
CONTINUOUS
 10
217.582272
 20
309.763140
 40
1.050000
  0
CIRCLE
  8
1
 62
7
  6
CONTINUOUS
 10
212.082272
 20
300.236860
 40
1.050000
  0
LINE
  8
1
 62
7
  6
CONTINUOUS
 10
211.168479
 20
312.669851
 11
237.336207
 21
325.169851
  0
LINE
  8
1
 62
7
  6
CONTINUOUS
 10
218.496065
 20
297.330149
 11
244.663793
 21
309.830149
  0
LINE
  8
1
 62
7
  6
CONTINUOUS
 10
211.168479
 20
297.330149
 11
237.336207
 21
284.830149
  0
LINE
  8
1
 62
7
  6
DASHDOT
 10
214.832272
 20
294.500000
 11
214.832272
 21
315.500000
  0
CIRCLE
  8
1
 62
7
  6
CONTINUOUS
 10
267.167728
 20
305.000000
 40
8.500000
  0
CIRCLE
  8
1
 62
7
  6
CONTINUOUS
 10
267.167728
 20
305.000000
 40
7.500000
  0
CIRCLE
  8
1
 62
7
  6
CONTINUOUS
 10
269.917728
 20
309.763140
 40
1.050000
  0
CIRCLE
  8
1
 62
7
  6
CONTINUOUS
 10
264.417728
 20
300.236860
 40
1.050000
  0
LINE
  8
1
 62
7
  6
DASHDOT
 10
267.167728
 20
294.500000
 11
267.167728
 21
315.500000
  0
LINE
  8
1
 62
7
  6
CONTINUOUS
 10
244.663793
 20
325.169851
 11
270.831521
 21
312.669851
  0
LINE
  8
1
 62
7
  6
CONTINUOUS
 10
263.503935
 20
312.669851
 11
237.336207
 21
300.169851
  0
LINE
  8
1
 62
7
  6
CONTINUOUS
 10
270.831521
 20
297.330149
 11
244.663793
 21
284.830149
  0
LINE
  8
1
 62
7
  6
CONTINUOUS
 10
234.552272
 20
305.000000
 11
241.000000
 21
301.920000
  0
LINE
  8
1
 62
7
  6
CONTINUOUS
 10
247.447728
 20
305.000000
 11
241.000000
 21
308.080000
  0
ARC
  8
1
 62
7
  6
CONTINUOUS
 10
241.000000
 20
292.500000
 40
10.000000
 50
-147.321560
 51
-115.841933
  0
ARC
  8
1
 62
7
  6
CONTINUOUS
 10
241.000000
 20
292.500000
 40
9.500000
 50
-142.058581
 51
-108.671718
  0
ARC
  8
1
 62
7
  6
CONTINUOUS
 10
241.000000
 20
292.500000
 40
9.500000
 50
-71.328282
 51
-37.941419
  0
ARC
  8
1
 62
7
  6
CONTINUOUS
 10
241.000000
 20
292.500000
 40
10.000000
 50
-64.158067
 51
-32.678440
  0
ARC
  8
1
 62
7
  6
CONTINUOUS
 10
241.000000
 20
317.500000
 40
10.000000
 50
115.841933
 51
147.321560
  0
ARC
  8
1
 62
7
  6
CONTINUOUS
 10
241.000000
 20
317.500000
 40
9.500000
 50
108.671718
 51
142.058581
  0
ARC
  8
1
 62
7
  6
CONTINUOUS
 10
241.000000
 20
317.500000
 40
9.500000
 50
37.941419
 51
71.328282
  0
ARC
  8
1
 62
7
  6
CONTINUOUS
 10
241.000000
 20
317.500000
 40
10.000000
 50
32.678440
 51
64.158067
  0
LINE
  8
1
 62
7
  6
DASHDOT
 10
230.500000
 20
317.500000
 11
251.500000
 21
317.500000
  0
LINE
  8
1
 62
7
  6
DASHDOT
 10
230.500000
 20
292.500000
 11
251.500000
 21
292.500000
  0
CIRCLE
  8
1
 62
7
  6
CONTINUOUS
 10
329.000000
 20
317.500000
 40
8.500000
  0
CIRCLE
  8
1
 62
7
  6
CONTINUOUS
 10
329.000000
 20
317.500000
 40
7.500000
  0
CIRCLE
  8
1
 62
7
  6
CONTINUOUS
 10
331.750000
 20
322.263140
 40
1.050000
  0
CIRCLE
  8
1
 62
7
  6
CONTINUOUS
 10
326.250000
 20
312.736860
 40
1.050000
  0
LINE
  8
1
 62
7
  6
DASHDOT
 10
329.000000
 20
307.000000
 11
329.000000
 21
328.500000
  0
CIRCLE
  8
1
 62
7
  6
CONTINUOUS
 10
329.000000
 20
292.500000
 40
8.500000
  0
CIRCLE
  8
1
 62
7
  6
CONTINUOUS
 10
329.000000
 20
292.500000
 40
7.500000
  0
LINE
  8
1
 62
7
  6
DASHDOT
 10
329.000000
 20
303.000000
 11
329.000000
 21
281.500000
  0
CIRCLE
  8
1
 62
7
  6
CONTINUOUS
 10
326.250000
 20
287.736860
 40
1.050000
  0
CIRCLE
  8
1
 62
7
  6
CONTINUOUS
 10
331.750000
 20
297.263140
 40
1.050000
  0
CIRCLE
  8
1
 62
7
  6
CONTINUOUS
 10
302.832272
 20
305.000000
 40
8.500000
  0
CIRCLE
  8
1
 62
7
  6
CONTINUOUS
 10
302.832272
 20
305.000000
 40
7.500000
  0
CIRCLE
  8
1
 62
7
  6
CONTINUOUS
 10
305.582272
 20
309.763140
 40
1.050000
  0
CIRCLE
  8
1
 62
7
  6
CONTINUOUS
 10
300.082272
 20
300.236860
 40
1.050000
  0
LINE
  8
1
 62
7
  6
CONTINUOUS
 10
299.168479
 20
312.669851
 11
325.336207
 21
325.169851
  0
LINE
  8
1
 62
7
  6
CONTINUOUS
 10
306.496065
 20
297.330149
 11
332.663793
 21
309.830149
  0
LINE
  8
1
 62
7
  6
CONTINUOUS
 10
299.168479
 20
297.330149
 11
325.336207
 21
284.830149
  0
LINE
  8
1
 62
7
  6
DASHDOT
 10
302.832272
 20
294.500000
 11
302.832272
 21
315.500000
  0
CIRCLE
  8
1
 62
7
  6
CONTINUOUS
 10
355.167728
 20
305.000000
 40
8.500000
  0
CIRCLE
  8
1
 62
7
  6
CONTINUOUS
 10
355.167728
 20
305.000000
 40
7.500000
  0
CIRCLE
  8
1
 62
7
  6
CONTINUOUS
 10
357.917728
 20
309.763140
 40
1.050000
  0
CIRCLE
  8
1
 62
7
  6
CONTINUOUS
 10
352.417728
 20
300.236860
 40
1.050000
  0
LINE
  8
1
 62
7
  6
CONTINUOUS
 10
332.663793
 20
325.169851
 11
358.831521
 21
312.669851
  0
LINE
  8
1
 62
7
  6
CONTINUOUS
 10
351.503935
 20
312.669851
 11
325.336207
 21
300.169851
  0
LINE
  8
1
 62
7
  6
CONTINUOUS
 10
358.831521
 20
297.330149
 11
332.663793
 21
284.830149
  0
LINE
  8
1
 62
7
  6
CONTINUOUS
 10
322.552272
 20
305.000000
 11
329.000000
 21
301.920000
  0
LINE
  8
1
 62
7
  6
CONTINUOUS
 10
335.447728
 20
305.000000
 11
329.000000
 21
308.080000
  0
ARC
  8
1
 62
7
  6
CONTINUOUS
 10
329.000000
 20
292.500000
 40
10.000000
 50
-147.321560
 51
-115.841933
  0
ARC
  8
1
 62
7
  6
CONTINUOUS
 10
329.000000
 20
292.500000
 40
9.500000
 50
-142.058581
 51
-108.671718
  0
ARC
  8
1
 62
7
  6
CONTINUOUS
 10
329.000000
 20
292.500000
 40
9.500000
 50
-71.328282
 51
-37.941419
  0
ARC
  8
1
 62
7
  6
CONTINUOUS
 10
329.000000
 20
292.500000
 40
10.000000
 50
-64.158067
 51
-32.678440
  0
ARC
  8
1
 62
7
  6
CONTINUOUS
 10
329.000000
 20
317.500000
 40
10.000000
 50
115.841933
 51
147.321560
  0
ARC
  8
1
 62
7
  6
CONTINUOUS
 10
329.000000
 20
317.500000
 40
9.500000
 50
108.671718
 51
142.058581
  0
ARC
  8
1
 62
7
  6
CONTINUOUS
 10
329.000000
 20
317.500000
 40
9.500000
 50
37.941419
 51
71.328282
  0
ARC
  8
1
 62
7
  6
CONTINUOUS
 10
329.000000
 20
317.500000
 40
10.000000
 50
32.678440
 51
64.158067
  0
LINE
  8
1
 62
7
  6
DASHDOT
 10
318.500000
 20
317.500000
 11
339.500000
 21
317.500000
  0
LINE
  8
1
 62
7
  6
DASHDOT
 10
318.500000
 20
292.500000
 11
339.500000
 21
292.500000
  0
LINE
  8
1
 62
7
  6
CONTINUOUS
 10
219.500000
 20
336.500000
 11
219.000000
 21
336.000000
  0
LINE
  8
1
 62
7
  6
CONTINUOUS
 10
219.000000
 20
336.000000
 11
219.000000
 21
327.000000
  0
LINE
  8
1
 62
7
  6
CONTINUOUS
 10
219.500000
 20
326.500000
 11
219.000000
 21
327.000000
  0
LINE
  8
1
 62
7
  6
CONTINUOUS
 10
350.500000
 20
336.500000
 11
219.500000
 21
336.500000
  0
LINE
  8
1
 62
7
  6
CONTINUOUS
 10
351.000000
 20
336.000000
 11
350.500000
 21
336.500000
  0
LINE
  8
1
 62
7
  6
CONTINUOUS
 10
219.500000
 20
326.500000
 11
350.500000
 21
326.500000
  0
LINE
  8
1
 62
7
  6
CONTINUOUS
 10
351.000000
 20
327.000000
 11
351.000000
 21
336.000000
  0
LINE
  8
1
 62
7
  6
CONTINUOUS
 10
350.500000
 20
326.500000
 11
351.000000
 21
327.000000
  0
LINE
  8
1
 62
7
  6
CONTINUOUS
 10
365.000000
 20
283.000000
 11
364.500000
 21
283.500000
  0
LINE
  8
1
 62
7
  6
CONTINUOUS
 10
365.000000
 20
274.000000
 11
365.000000
 21
283.000000
  0
LINE
  8
1
 62
7
  6
CONTINUOUS
 10
364.500000
 20
273.500000
 11
365.000000
 21
274.000000
  0
LINE
  8
1
 62
7
  6
CONTINUOUS
 10
205.500000
 20
273.500000
 11
364.500000
 21
273.500000
  0
LINE
  8
1
 62
7
  6
CONTINUOUS
 10
205.000000
 20
274.000000
 11
205.500000
 21
273.500000
  0
LINE
  8
1
 62
7
  6
CONTINUOUS
 10
364.500000
 20
283.500000
 11
205.500000
 21
283.500000
  0
LINE
  8
1
 62
7
  6
CONTINUOUS
 10
205.000000
 20
283.000000
 11
205.000000
 21
274.000000
  0
LINE
  8
1
 62
7
  6
CONTINUOUS
 10
205.500000
 20
283.500000
 11
205.000000
 21
283.000000
  0
LINE
  8
1
 62
7
  6
CONTINUOUS
 10
276.167728
 20
310.500000
 11
275.667728
 21
311.000000
  0
LINE
  8
1
 62
7
  6
CONTINUOUS
 10
276.167728
 20
299.500000
 11
275.667728
 21
299.000000
  0
LINE
  8
1
 62
7
  6
CONTINUOUS
 10
295.532272
 20
313.000000
 11
294.332272
 21
313.000000
  0
ARC
  8
1
 62
7
  6
CONTINUOUS
 10
295.532272
 20
312.700000
 40
0.300000
 50
0.000000
 51
90.000000
  0
LINE
  8
1
 62
7
  6
CONTINUOUS
 10
292.332272
 20
313.000000
 11
291.132272
 21
313.000000
  0
ARC
  8
1
 62
7
  6
CONTINUOUS
 10
291.132272
 20
312.700000
 40
0.300000
 50
90.000000
 51
180.000000
  0
LINE
  8
1
 62
7
  6
CONTINUOUS
 10
291.132272
 20
297.000000
 11
292.332272
 21
297.000000
  0
ARC
  8
1
 62
7
  6
CONTINUOUS
 10
291.132272
 20
297.300000
 40
0.300000
 50
180.000000
 51
-90.000000
  0
LINE
  8
1
 62
7
  6
CONTINUOUS
 10
294.332272
 20
297.000000
 11
295.532272
 21
297.000000
  0
ARC
  8
1
 62
7
  6
CONTINUOUS
 10
295.532272
 20
297.300000
 40
0.300000
 50
-90.000000
 51
0.000000
  0
ARC
  8
1
 62
7
  6
CONTINUOUS
 10
293.332272
 20
311.000000
 40
1.250000
 50
-44.663659
 51
-36.869898
  0
ARC
  8
1
 62
7
  6
CONTINUOUS
 10
293.332272
 20
311.000000
 40
1.250000
 50
-143.130102
 51
-135.336341
  0
ARC
  8
1
 62
7
  6
CONTINUOUS
 10
293.332272
 20
309.242641
 40
1.250000
 50
129.791820
 51
143.130102
  0
ARC
  8
1
 62
7
  6
CONTINUOUS
 10
293.332272
 20
309.242641
 40
1.250000
 50
36.869898
 51
50.208181
  0
ARC
  8
1
 62
7
  6
CONTINUOUS
 10
293.332272
 20
311.000000
 40
1.250000
 50
129.791820
 51
143.130102
  0
ARC
  8
1
 62
7
  6
CONTINUOUS
 10
293.332272
 20
311.000000
 40
1.250000
 50
36.869898
 51
50.208181
  0
ARC
  8
1
 62
7
  6
CONTINUOUS
 10
293.332272
 20
309.242641
 40
1.250000
 50
-50.208181
 51
-36.869898
  0
ARC
  8
1
 62
7
  6
CONTINUOUS
 10
293.332272
 20
309.242641
 40
1.250000
 50
-143.130102
 51
-129.791819
  0
ARC
  8
1
 62
7
  6
CONTINUOUS
 10
293.332272
 20
299.000000
 40
1.250000
 50
36.869898
 51
44.663659
  0
ARC
  8
1
 62
7
  6
CONTINUOUS
 10
293.332272
 20
299.000000
 40
1.250000
 50
135.336341
 51
143.130102
  0
ARC
  8
1
 62
7
  6
CONTINUOUS
 10
293.332272
 20
300.757359
 40
1.250000
 50
-143.130102
 51
-129.791819
  0
ARC
  8
1
 62
7
  6
CONTINUOUS
 10
293.332272
 20
300.757359
 40
1.250000
 50
-50.208181
 51
-36.869898
  0
ARC
  8
1
 62
7
  6
CONTINUOUS
 10
293.332272
 20
299.000000
 40
1.250000
 50
-143.130102
 51
-129.791819
  0
ARC
  8
1
 62
7
  6
CONTINUOUS
 10
293.332272
 20
299.000000
 40
1.250000
 50
-50.208181
 51
-36.869898
  0
ARC
  8
1
 62
7
  6
CONTINUOUS
 10
293.332272
 20
300.757359
 40
1.250000
 50
36.869898
 51
50.208181
  0
ARC
  8
1
 62
7
  6
CONTINUOUS
 10
293.332272
 20
300.757359
 40
1.250000
 50
129.791820
 51
143.130102
  0
LINE
  8
1
 62
7
  6
CONTINUOUS
 10
292.732272
 20
313.000000
 11
294.132272
 21
313.000000
  0
ARC
  8
1
 62
7
  6
CONTINUOUS
 10
292.732272
 20
312.800000
 40
0.200000
 50
90.000000
 51
180.000000
  0
LINE
  8
1
 62
7
  6
CONTINUOUS
 10
292.732272
 20
297.000000
 11
294.132272
 21
297.000000
  0
ARC
  8
1
 62
7
  6
CONTINUOUS
 10
292.732272
 20
297.200000
 40
0.200000
 50
180.000000
 51
-90.000000
  0
LINE
  8
1
 62
7
  6
CONTINUOUS
 10
290.632272
 20
313.000000
 11
290.832272
 21
312.800000
  0
LINE
  8
1
 62
7
  6
CONTINUOUS
 10
290.632272
 20
313.000000
 11
285.032272
 21
313.000000
  0
LINE
  8
1
 62
7
  6
CONTINUOUS
 10
284.832272
 20
312.800000
 11
285.032272
 21
313.000000
  0
LINE
  8
1
 62
7
  6
CONTINUOUS
 10
285.032272
 20
297.000000
 11
284.832272
 21
297.200000
  0
LINE
  8
1
 62
7
  6
CONTINUOUS
 10
285.032272
 20
297.000000
 11
290.632272
 21
297.000000
  0
LINE
  8
1
 62
7
  6
CONTINUOUS
 10
290.832272
 20
297.200000
 11
290.632272
 21
297.000000
  0
LINE
  8
1
 62
7
  6
CONTINUOUS
 10
284.832272
 20
309.000000
 11
276.167728
 21
309.000000
  0
LINE
  8
1
 62
7
  6
CONTINUOUS
 10
276.167728
 20
301.000000
 11
284.832272
 21
301.000000
  0
LINE
  8
1
 62
7
  6
CONTINUOUS
 10
284.832272
 20
308.500000
 11
276.167728
 21
308.500000
  0
LINE
  8
1
 62
7
  6
CONTINUOUS
 10
284.832272
 20
301.500000
 11
276.167728
 21
301.500000
  0
LINE
  8
1
 62
7
  6
CONTINUOUS
 10
275.667728
 20
302.000000
 11
275.667728
 21
299.000000
  0
LINE
  8
1
 62
7
  6
CONTINUOUS
 10
275.667728
 20
311.000000
 11
275.667728
 21
308.000000
  0
LINE
  8
1
 62
7
  6
CONTINUOUS
 10
276.167728
 20
302.000000
 11
276.167728
 21
299.500000
  0
LINE
  8
1
 62
7
  6
CONTINUOUS
 10
276.167728
 20
310.500000
 11
276.167728
 21
308.000000
  0
LINE
  8
1
 62
7
  6
CONTINUOUS
 10
284.832272
 20
302.000000
 11
284.832272
 21
297.200000
  0
LINE
  8
1
 62
7
  6
CONTINUOUS
 10
284.832272
 20
312.800000
 11
284.832272
 21
308.000000
  0
LINE
  8
1
 62
7
  6
CONTINUOUS
 10
285.032272
 20
308.000000
 11
285.032272
 21
313.000000
  0
LINE
  8
1
 62
7
  6
CONTINUOUS
 10
285.032272
 20
297.000000
 11
285.032272
 21
302.000000
  0
LINE
  8
1
 62
7
  6
CONTINUOUS
 10
290.632272
 20
302.000000
 11
290.632272
 21
297.000000
  0
LINE
  8
1
 62
7
  6
CONTINUOUS
 10
290.632272
 20
313.000000
 11
290.632272
 21
308.000000
  0
LINE
  8
1
 62
7
  6
CONTINUOUS
 10
290.832272
 20
308.000000
 11
290.832272
 21
312.800000
  0
LINE
  8
1
 62
7
  6
CONTINUOUS
 10
290.832272
 20
297.200000
 11
290.832272
 21
302.000000
  0
LINE
  8
1
 62
7
  6
CONTINUOUS
 10
292.332272
 20
302.000000
 11
292.332272
 21
297.000000
  0
LINE
  8
1
 62
7
  6
CONTINUOUS
 10
292.332272
 20
313.000000
 11
292.332272
 21
308.000000
  0
LINE
  8
1
 62
7
  6
CONTINUOUS
 10
292.532272
 20
302.000000
 11
292.532272
 21
297.200000
  0
LINE
  8
1
 62
7
  6
CONTINUOUS
 10
292.532272
 20
312.800000
 11
292.532272
 21
308.000000
  0
LINE
  8
1
 62
7
  6
CONTINUOUS
 10
294.132272
 20
308.000000
 11
294.132272
 21
313.000000
  0
LINE
  8
1
 62
7
  6
CONTINUOUS
 10
294.132272
 20
297.000000
 11
294.132272
 21
302.000000
  0
LINE
  8
1
 62
7
  6
CONTINUOUS
 10
294.332272
 20
302.000000
 11
294.332272
 21
297.000000
  0
LINE
  8
1
 62
7
  6
CONTINUOUS
 10
294.332272
 20
313.000000
 11
294.332272
 21
308.000000
  0
LINE
  8
1
 62
7
  6
CONTINUOUS
 10
241.167473
 20
308.000000
 11
240.832527
 21
308.000000
  0
LINE
  8
1
 62
7
  6
CONTINUOUS
 10
241.167473
 20
302.000000
 11
240.832527
 21
302.000000
  0
LINE
  8
1
 62
7
  6
CONTINUOUS
 10
328.832527
 20
308.000000
 11
329.167473
 21
308.000000
  0
LINE
  8
1
 62
7
  6
CONTINUOUS
 10
328.832527
 20
302.000000
 11
329.167473
 21
302.000000
  0
LINE
  8
1
 62
7
  6
CONTINUOUS
 10
391.332272
 20
283.500000
 11
390.332272
 21
282.500000
  0
LINE
  8
1
 62
7
  6
CONTINUOUS
 10
379.332272
 20
282.500000
 11
390.332272
 21
282.500000
  0
LINE
  8
1
 62
7
  6
CONTINUOUS
 10
378.332272
 20
283.500000
 11
379.332272
 21
282.500000
  0
LINE
  8
1
 62
7
  6
CONTINUOUS
 10
392.332272
 20
284.000000
 11
391.332272
 21
284.000000
  0
LINE
  8
1
 62
7
  6
CONTINUOUS
 10
392.332272
 20
284.000000
 11
392.832272
 21
284.500000
  0
LINE
  8
1
 62
7
  6
CONTINUOUS
 10
377.332272
 20
284.000000
 11
378.332272
 21
284.000000
  0
LINE
  8
1
 62
7
  6
CONTINUOUS
 10
376.832272
 20
284.500000
 11
377.332272
 21
284.000000
  0
LINE
  8
1
 62
7
  6
CONTINUOUS
 10
392.332272
 20
326.000000
 11
391.332272
 21
326.000000
  0
LINE
  8
1
 62
7
  6
CONTINUOUS
 10
392.832272
 20
284.500000
 11
392.832272
 21
325.500000
  0
LINE
  8
1
 62
7
  6
CONTINUOUS
 10
392.332272
 20
326.000000
 11
392.832272
 21
325.500000
  0
LINE
  8
1
 62
7
  6
CONTINUOUS
 10
377.332272
 20
326.000000
 11
378.332272
 21
326.000000
  0
LINE
  8
1
 62
7
  6
CONTINUOUS
 10
376.832272
 20
325.500000
 11
377.332272
 21
326.000000
  0
LINE
  8
1
 62
7
  6
CONTINUOUS
 10
379.332272
 20
327.500000
 11
378.332272
 21
326.500000
  0
LINE
  8
1
 62
7
  6
CONTINUOUS
 10
390.332272
 20
327.500000
 11
379.332272
 21
327.500000
  0
LINE
  8
1
 62
7
  6
CONTINUOUS
 10
391.332272
 20
326.500000
 11
390.332272
 21
327.500000
  0
LINE
  8
1
 62
7
  6
CONTINUOUS
 10
380.332272
 20
283.500000
 11
390.332272
 21
283.500000
  0
LINE
  8
1
 62
7
  6
CONTINUOUS
 10
390.332272
 20
284.500000
 11
381.332272
 21
284.500000
  0
LINE
  8
1
 62
7
  6
CONTINUOUS
 10
382.332272
 20
285.500000
 11
390.332272
 21
285.500000
  0
LINE
  8
1
 62
7
  6
CONTINUOUS
 10
390.332272
 20
286.500000
 11
383.332272
 21
286.500000
  0
LINE
  8
1
 62
7
  6
CONTINUOUS
 10
384.332272
 20
287.500000
 11
390.332272
 21
287.500000
  0
LINE
  8
1
 62
7
  6
CONTINUOUS
 10
390.332272
 20
288.500000
 11
385.332272
 21
288.500000
  0
LINE
  8
1
 62
7
  6
CONTINUOUS
 10
376.832272
 20
325.500000
 11
376.832272
 21
284.500000
  0
LINE
  8
1
 62
7
  6
CONTINUOUS
 10
378.332272
 20
283.500000
 11
378.332272
 21
326.500000
  0
LINE
  8
1
 62
7
  6
CONTINUOUS
 10
391.332272
 20
326.500000
 11
391.332272
 21
283.500000
  0
LINE
  8
1
 62
7
  6
CONTINUOUS
 10
377.332272
 20
284.000000
 11
377.332272
 21
326.000000
  0
LINE
  8
1
 62
7
  6
CONTINUOUS
 10
379.332272
 20
282.500000
 11
379.332272
 21
327.500000
  0
LINE
  8
1
 62
7
  6
CONTINUOUS
 10
390.332272
 20
282.500000
 11
390.332272
 21
327.500000
  0
LINE
  8
1
 62
7
  6
CONTINUOUS
 10
392.332272
 20
284.000000
 11
392.332272
 21
326.000000
  0
LINE
  8
1
 62
7
  6
CONTINUOUS
 10
389.332272
 20
326.500000
 11
379.332272
 21
326.500000
  0
LINE
  8
1
 62
7
  6
CONTINUOUS
 10
379.332272
 20
325.500000
 11
388.332272
 21
325.500000
  0
LINE
  8
1
 62
7
  6
CONTINUOUS
 10
387.332272
 20
324.500000
 11
379.332272
 21
324.500000
  0
LINE
  8
1
 62
7
  6
CONTINUOUS
 10
379.332272
 20
323.500000
 11
386.332272
 21
323.500000
  0
LINE
  8
1
 62
7
  6
CONTINUOUS
 10
385.332272
 20
322.500000
 11
379.332272
 21
322.500000
  0
LINE
  8
1
 62
7
  6
CONTINUOUS
 10
379.332272
 20
321.500000
 11
384.332272
 21
321.500000
  0
LINE
  8
1
 62
7
  6
CONTINUOUS
 10
361.167728
 20
311.708204
 11
361.167728
 21
313.122499
  0
LINE
  8
1
 62
7
  6
CONTINUOUS
 10
361.167728
 20
313.122499
 11
360.667728
 21
313.622499
  0
LINE
  8
1
 62
7
  6
CONTINUOUS
 10
360.167728
 20
314.622499
 11
360.167728
 21
320.222499
  0
LINE
  8
1
 62
7
  6
CONTINUOUS
 10
350.867728
 20
320.622499
 11
359.467728
 21
320.622499
  0
LINE
  8
1
 62
7
  6
CONTINUOUS
 10
360.167728
 20
320.222499
 11
350.167728
 21
320.222499
  0
LINE
  8
1
 62
7
  6
CONTINUOUS
 10
350.167728
 20
320.222499
 11
350.867728
 21
320.622499
  0
LINE
  8
1
 62
7
  6
CONTINUOUS
 10
359.467728
 20
320.622499
 11
360.167728
 21
320.222499
  0
LINE
  8
1
 62
7
  6
CONTINUOUS
 10
359.767728
 20
314.622499
 11
359.767728
 21
320.222499
  0
LINE
  8
1
 62
7
  6
CONTINUOUS
 10
359.267728
 20
315.622499
 11
359.267728
 21
320.222499
  0
LINE
  8
1
 62
7
  6
CONTINUOUS
 10
358.667728
 20
316.622499
 11
358.667728
 21
320.222499
  0
LINE
  8
1
 62
7
  6
CONTINUOUS
 10
357.967728
 20
317.622499
 11
357.967728
 21
320.222499
  0
LINE
  8
1
 62
7
  6
CONTINUOUS
 10
357.067728
 20
318.622499
 11
357.067728
 21
320.222499
  0
LINE
  8
1
 62
7
  6
CONTINUOUS
 10
356.167728
 20
319.622499
 11
356.167728
 21
320.222499
  0
LINE
  8
1
 62
7
  6
CONTINUOUS
 10
361.167728
 20
313.622499
 11
357.746974
 21
313.622499
  0
LINE
  8
1
 62
7
  6
CONTINUOUS
 10
361.167728
 20
314.622499
 11
361.167728
 21
313.622499
  0
ARC
  8
1
 62
7
  6
CONTINUOUS
 10
214.832272
 20
305.000000
 40
9.000000
 50
96.345092
 51
-96.345092
  0
LINE
  8
1
 62
7
  6
DASHDOT
 10
200.832272
 20
305.000000
 11
397.832272
 21
305.000000
  0
ARC
  8
1
 62
7
  6
CONTINUOUS
 10
267.167728
 20
305.000000
 40
9.000000
 50
-83.654908
 51
83.654908
  0
LINE
  8
1
 62
7
  6
CONTINUOUS
 10
275.667728
 20
299.000000
 11
273.875932
 21
299.000000
  0
LINE
  8
1
 62
7
  6
CONTINUOUS
 10
275.667728
 20
311.000000
 11
273.875932
 21
311.000000
  0
ARC
  8
1
 62
7
  6
CONTINUOUS
 10
302.832272
 20
305.000000
 40
9.000000
 50
96.345092
 51
-96.345092
  0
LINE
  8
1
 62
7
  6
CONTINUOUS
 10
295.832272
 20
312.700000
 11
295.832272
 21
310.656854
  0
LINE
  8
1
 62
7
  6
CONTINUOUS
 10
295.832272
 20
299.343146
 11
295.832272
 21
297.300000
  0
LINE
  8
1
 62
7
  6
CONTINUOUS
 10
294.332272
 20
302.000000
 11
275.667728
 21
302.000000
  0
LINE
  8
1
 62
7
  6
CONTINUOUS
 10
275.667728
 20
308.000000
 11
294.332272
 21
308.000000
  0
ARC
  8
1
 62
7
  6
CONTINUOUS
 10
355.167728
 20
305.000000
 40
9.000000
 50
-83.654908
 51
83.654908
  0
LINE
  8
1
 62
7
  6
CONTINUOUS
 10
376.832272
 20
309.000000
 11
363.229986
 21
309.000000
  0
LINE
  8
1
 62
7
  6
CONTINUOUS
 10
363.229986
 20
301.000000
 11
376.832272
 21
301.000000
  0
LINE
  8
1
 62
7
  6
CONTINUOUS
 10
361.167728
 20
313.122499
 11
359.043939
 21
313.122499
  0
LINE
  8
1
 62
7
  6
CONTINUOUS
 10
354.743813
 20
314.622499
 11
361.167728
 21
314.622499
  0
LINE
  8
1
 62
7
  6
CONTINUOUS
 10
350.167728
 20
316.808438
 11
350.167728
 21
320.222499
  0
LINE
  8
1
 62
7
  6
CONTINUOUS
 10
361.167728
 20
296.877501
 11
361.167728
 21
298.291796
  0
LINE
  8
1
 62
7
  6
CONTINUOUS
 10
360.667728
 20
296.377501
 11
357.746974
 21
296.377501
  0
LINE
  8
1
 62
7
  6
CONTINUOUS
 10
361.167728
 20
296.877501
 11
360.667728
 21
296.377501
  0
LINE
  8
1
 62
7
  6
CONTINUOUS
 10
361.167728
 20
296.877501
 11
359.043939
 21
296.877501
  0
LINE
  8
1
 62
7
  6
DASHDOT
 10
95.000000
 20
341.500000
 11
95.000000
 21
268.500000
  0
LINE
  8
1
 62
7
  6
CONTINUOUS
 10
66.500000
 20
296.000000
 11
123.500000
 21
296.000000
  0
LINE
  8
1
 62
7
  6
CONTINUOUS
 10
66.000000
 20
296.500000
 11
66.500000
 21
296.000000
  0
LINE
  8
1
 62
7
  6
CONTINUOUS
 10
123.500000
 20
314.000000
 11
66.500000
 21
314.000000
  0
LINE
  8
1
 62
7
  6
CONTINUOUS
 10
66.500000
 20
314.000000
 11
66.000000
 21
313.500000
  0
LINE
  8
1
 62
7
  6
CONTINUOUS
 10
66.500000
 20
314.000000
 11
66.500000
 21
296.000000
  0
LINE
  8
1
 62
7
  6
CONTINUOUS
 10
66.000000
 20
313.500000
 11
63.000000
 21
313.500000
  0
LINE
  8
1
 62
7
  6
CONTINUOUS
 10
63.000000
 20
313.500000
 11
63.000000
 21
284.000000
  0
LINE
  8
1
 62
7
  6
CONTINUOUS
 10
66.000000
 20
284.000000
 11
63.000000
 21
284.000000
  0
LINE
  8
1
 62
7
  6
CONTINUOUS
 10
63.000000
 20
312.500000
 11
62.750000
 21
312.500000
  0
LINE
  8
1
 62
7
  6
CONTINUOUS
 10
62.750000
 20
297.500000
 11
63.000000
 21
297.500000
  0
LINE
  8
1
 62
7
  6
CONTINUOUS
 10
62.750000
 20
296.500000
 11
59.750000
 21
296.500000
  0
LINE
  8
1
 62
7
  6
CONTINUOUS
 10
59.750000
 20
296.500000
 11
59.750000
 21
326.000000
  0
LINE
  8
1
 62
7
  6
CONTINUOUS
 10
62.750000
 20
326.000000
 11
59.750000
 21
326.000000
  0
LINE
  8
1
 62
7
  6
CONTINUOUS
 10
62.750000
 20
326.000000
 11
62.750000
 21
296.500000
  0
LINE
  8
1
 62
7
  6
CONTINUOUS
 10
58.750000
 20
313.500000
 11
58.750000
 21
296.500000
  0
LINE
  8
1
 62
7
  6
CONTINUOUS
 10
58.750000
 20
313.500000
 11
59.750000
 21
313.500000
  0
LINE
  8
1
 62
7
  6
CONTINUOUS
 10
58.750000
 20
296.500000
 11
59.750000
 21
296.500000
  0
LINE
  8
1
 62
7
  6
CONTINUOUS
 10
58.750000
 20
313.500000
 11
56.750000
 21
313.500000
  0
LINE
  8
1
 62
7
  6
CONTINUOUS
 10
56.750000
 20
313.500000
 11
55.750000
 21
312.500000
  0
LINE
  8
1
 62
7
  6
CONTINUOUS
 10
56.750000
 20
296.500000
 11
58.750000
 21
296.500000
  0
LINE
  8
1
 62
7
  6
CONTINUOUS
 10
55.750000
 20
312.500000
 11
55.750000
 21
297.500000
  0
LINE
  8
1
 62
7
  6
CONTINUOUS
 10
56.750000
 20
296.500000
 11
55.750000
 21
297.500000
  0
LINE
  8
1
 62
7
  6
CONTINUOUS
 10
56.750000
 20
313.500000
 11
56.750000
 21
296.500000
  0
LINE
  8
1
 62
7
  6
CONTINUOUS
 10
66.000000
 20
313.500000
 11
66.000000
 21
326.500000
  0
LINE
  8
1
 62
7
  6
CONTINUOUS
 10
66.500000
 20
314.000000
 11
66.500000
 21
326.500000
  0
LINE
  8
1
 62
7
  6
CONTINUOUS
 10
63.000000
 20
313.500000
 11
63.000000
 21
326.000000
  0
LINE
  8
1
 62
7
  6
CONTINUOUS
 10
63.000000
 20
326.000000
 11
66.000000
 21
326.000000
  0
LINE
  8
1
 62
7
  6
CONTINUOUS
 10
63.000000
 20
325.000000
 11
62.750000
 21
325.000000
  0
LINE
  8
1
 62
7
  6
CONTINUOUS
 10
58.750000
 20
326.000000
 11
59.750000
 21
326.000000
  0
LINE
  8
1
 62
7
  6
CONTINUOUS
 10
58.750000
 20
326.000000
 11
56.750000
 21
326.000000
  0
LINE
  8
1
 62
7
  6
CONTINUOUS
 10
56.750000
 20
326.000000
 11
55.750000
 21
325.000000
  0
LINE
  8
1
 62
7
  6
CONTINUOUS
 10
55.750000
 20
325.000000
 11
55.750000
 21
312.500000
  0
LINE
  8
1
 62
7
  6
CONTINUOUS
 10
56.750000
 20
326.000000
 11
56.750000
 21
313.500000
  0
LINE
  8
1
 62
7
  6
CONTINUOUS
 10
58.750000
 20
326.000000
 11
58.750000
 21
313.500000
  0
LINE
  8
1
 62
7
  6
CONTINUOUS
 10
66.000000
 20
313.500000
 11
66.000000
 21
283.500000
  0
LINE
  8
1
 62
7
  6
CONTINUOUS
 10
66.500000
 20
296.000000
 11
66.500000
 21
283.500000
  0
LINE
  8
1
 62
7
  6
CONTINUOUS
 10
62.750000
 20
296.500000
 11
62.750000
 21
284.000000
  0
LINE
  8
1
 62
7
  6
CONTINUOUS
 10
59.750000
 20
296.500000
 11
59.750000
 21
284.000000
  0
LINE
  8
1
 62
7
  6
CONTINUOUS
 10
59.750000
 20
284.000000
 11
62.750000
 21
284.000000
  0
LINE
  8
1
 62
7
  6
CONTINUOUS
 10
62.750000
 20
285.000000
 11
63.000000
 21
285.000000
  0
LINE
  8
1
 62
7
  6
CONTINUOUS
 10
58.750000
 20
284.000000
 11
59.750000
 21
284.000000
  0
LINE
  8
1
 62
7
  6
CONTINUOUS
 10
56.750000
 20
284.000000
 11
58.750000
 21
284.000000
  0
LINE
  8
1
 62
7
  6
CONTINUOUS
 10
56.750000
 20
284.000000
 11
55.750000
 21
285.000000
  0
LINE
  8
1
 62
7
  6
CONTINUOUS
 10
55.750000
 20
297.500000
 11
55.750000
 21
285.000000
  0
LINE
  8
1
 62
7
  6
CONTINUOUS
 10
56.750000
 20
296.500000
 11
56.750000
 21
284.000000
  0
LINE
  8
1
 62
7
  6
CONTINUOUS
 10
58.750000
 20
296.500000
 11
58.750000
 21
284.000000
  0
LINE
  8
1
 62
7
  6
CONTINUOUS
 10
124.000000
 20
296.500000
 11
123.500000
 21
296.000000
  0
LINE
  8
1
 62
7
  6
CONTINUOUS
 10
123.500000
 20
314.000000
 11
124.000000
 21
313.500000
  0
LINE
  8
1
 62
7
  6
CONTINUOUS
 10
123.500000
 20
314.000000
 11
123.500000
 21
296.000000
  0
LINE
  8
1
 62
7
  6
CONTINUOUS
 10
124.000000
 20
313.500000
 11
127.000000
 21
313.500000
  0
LINE
  8
1
 62
7
  6
CONTINUOUS
 10
127.000000
 20
313.500000
 11
127.000000
 21
284.000000
  0
LINE
  8
1
 62
7
  6
CONTINUOUS
 10
124.000000
 20
284.000000
 11
127.000000
 21
284.000000
  0
LINE
  8
1
 62
7
  6
CONTINUOUS
 10
127.000000
 20
312.500000
 11
127.250000
 21
312.500000
  0
LINE
  8
1
 62
7
  6
CONTINUOUS
 10
127.250000
 20
297.500000
 11
127.000000
 21
297.500000
  0
LINE
  8
1
 62
7
  6
CONTINUOUS
 10
127.250000
 20
296.500000
 11
130.250000
 21
296.500000
  0
LINE
  8
1
 62
7
  6
CONTINUOUS
 10
130.250000
 20
296.500000
 11
130.250000
 21
326.000000
  0
LINE
  8
1
 62
7
  6
CONTINUOUS
 10
127.250000
 20
326.000000
 11
130.250000
 21
326.000000
  0
LINE
  8
1
 62
7
  6
CONTINUOUS
 10
127.250000
 20
326.000000
 11
127.250000
 21
296.500000
  0
LINE
  8
1
 62
7
  6
CONTINUOUS
 10
131.250000
 20
313.500000
 11
131.250000
 21
296.500000
  0
LINE
  8
1
 62
7
  6
CONTINUOUS
 10
131.250000
 20
313.500000
 11
130.250000
 21
313.500000
  0
LINE
  8
1
 62
7
  6
CONTINUOUS
 10
131.250000
 20
296.500000
 11
130.250000
 21
296.500000
  0
LINE
  8
1
 62
7
  6
CONTINUOUS
 10
131.250000
 20
313.500000
 11
133.250000
 21
313.500000
  0
LINE
  8
1
 62
7
  6
CONTINUOUS
 10
133.250000
 20
313.500000
 11
134.250000
 21
312.500000
  0
LINE
  8
1
 62
7
  6
CONTINUOUS
 10
133.250000
 20
296.500000
 11
131.250000
 21
296.500000
  0
LINE
  8
1
 62
7
  6
CONTINUOUS
 10
134.250000
 20
312.500000
 11
134.250000
 21
297.500000
  0
LINE
  8
1
 62
7
  6
CONTINUOUS
 10
133.250000
 20
296.500000
 11
134.250000
 21
297.500000
  0
LINE
  8
1
 62
7
  6
CONTINUOUS
 10
133.250000
 20
313.500000
 11
133.250000
 21
296.500000
  0
LINE
  8
1
 62
7
  6
CONTINUOUS
 10
124.000000
 20
313.500000
 11
124.000000
 21
326.500000
  0
LINE
  8
1
 62
7
  6
CONTINUOUS
 10
123.500000
 20
314.000000
 11
123.500000
 21
326.500000
  0
LINE
  8
1
 62
7
  6
CONTINUOUS
 10
127.000000
 20
313.500000
 11
127.000000
 21
326.000000
  0
LINE
  8
1
 62
7
  6
CONTINUOUS
 10
127.000000
 20
326.000000
 11
124.000000
 21
326.000000
  0
LINE
  8
1
 62
7
  6
CONTINUOUS
 10
127.000000
 20
325.000000
 11
127.250000
 21
325.000000
  0
LINE
  8
1
 62
7
  6
CONTINUOUS
 10
131.250000
 20
326.000000
 11
130.250000
 21
326.000000
  0
LINE
  8
1
 62
7
  6
CONTINUOUS
 10
131.250000
 20
326.000000
 11
133.250000
 21
326.000000
  0
LINE
  8
1
 62
7
  6
CONTINUOUS
 10
133.250000
 20
326.000000
 11
134.250000
 21
325.000000
  0
LINE
  8
1
 62
7
  6
CONTINUOUS
 10
134.250000
 20
325.000000
 11
134.250000
 21
312.500000
  0
LINE
  8
1
 62
7
  6
CONTINUOUS
 10
133.250000
 20
326.000000
 11
133.250000
 21
313.500000
  0
LINE
  8
1
 62
7
  6
CONTINUOUS
 10
131.250000
 20
326.000000
 11
131.250000
 21
313.500000
  0
LINE
  8
1
 62
7
  6
CONTINUOUS
 10
124.000000
 20
313.500000
 11
124.000000
 21
283.500000
  0
LINE
  8
1
 62
7
  6
CONTINUOUS
 10
123.500000
 20
296.000000
 11
123.500000
 21
283.500000
  0
LINE
  8
1
 62
7
  6
CONTINUOUS
 10
127.250000
 20
296.500000
 11
127.250000
 21
284.000000
  0
LINE
  8
1
 62
7
  6
CONTINUOUS
 10
130.250000
 20
296.500000
 11
130.250000
 21
284.000000
  0
LINE
  8
1
 62
7
  6
CONTINUOUS
 10
130.250000
 20
284.000000
 11
127.250000
 21
284.000000
  0
LINE
  8
1
 62
7
  6
CONTINUOUS
 10
127.250000
 20
285.000000
 11
127.000000
 21
285.000000
  0
LINE
  8
1
 62
7
  6
CONTINUOUS
 10
131.250000
 20
284.000000
 11
130.250000
 21
284.000000
  0
LINE
  8
1
 62
7
  6
CONTINUOUS
 10
133.250000
 20
284.000000
 11
131.250000
 21
284.000000
  0
LINE
  8
1
 62
7
  6
CONTINUOUS
 10
133.250000
 20
284.000000
 11
134.250000
 21
285.000000
  0
LINE
  8
1
 62
7
  6
CONTINUOUS
 10
134.250000
 20
297.500000
 11
134.250000
 21
285.000000
  0
LINE
  8
1
 62
7
  6
CONTINUOUS
 10
133.250000
 20
296.500000
 11
133.250000
 21
284.000000
  0
LINE
  8
1
 62
7
  6
CONTINUOUS
 10
131.250000
 20
296.500000
 11
131.250000
 21
284.000000
  0
LINE
  8
1
 62
7
  6
DASHDOT
 10
137.250000
 20
317.500000
 11
52.750000
 21
317.500000
  0
LINE
  8
1
 62
7
  6
DASHDOT
 10
137.250000
 20
292.500000
 11
52.750000
 21
292.500000
  0
LINE
  8
1
 62
7
  6
DASHDOT
 10
140.000000
 20
305.000000
 11
50.000000
 21
305.000000
  0
CIRCLE
  8
1
 62
7
  6
CONTINUOUS
 10
83.500000
 20
305.000000
 40
3.000000
  0
LINE
  8
1
 62
7
  6
DASHDOT
 10
83.500000
 20
301.000000
 11
83.500000
 21
309.000000
  0
CIRCLE
  8
1
 62
7
  6
CONTINUOUS
 10
106.500000
 20
305.000000
 40
3.000000
  0
LINE
  8
1
 62
7
  6
DASHDOT
 10
106.500000
 20
301.000000
 11
106.500000
 21
309.000000
  0
LINE
  8
1
 62
7
  6
CONTINUOUS
 10
134.500000
 20
336.500000
 11
135.000000
 21
336.000000
  0
LINE
  8
1
 62
7
  6
CONTINUOUS
 10
134.500000
 20
336.500000
 11
55.500000
 21
336.500000
  0
LINE
  8
1
 62
7
  6
CONTINUOUS
 10
55.000000
 20
336.000000
 11
55.500000
 21
336.500000
  0
LINE
  8
1
 62
7
  6
CONTINUOUS
 10
55.000000
 20
336.000000
 11
55.000000
 21
327.000000
  0
LINE
  8
1
 62
7
  6
CONTINUOUS
 10
55.500000
 20
326.500000
 11
55.000000
 21
327.000000
  0
LINE
  8
1
 62
7
  6
CONTINUOUS
 10
135.000000
 20
327.000000
 11
135.000000
 21
336.000000
  0
LINE
  8
1
 62
7
  6
CONTINUOUS
 10
134.500000
 20
326.500000
 11
55.500000
 21
326.500000
  0
LINE
  8
1
 62
7
  6
CONTINUOUS
 10
135.000000
 20
327.000000
 11
134.500000
 21
326.500000
  0
LINE
  8
1
 62
7
  6
CONTINUOUS
 10
135.000000
 20
283.000000
 11
134.500000
 21
283.500000
  0
LINE
  8
1
 62
7
  6
CONTINUOUS
 10
135.000000
 20
274.000000
 11
135.000000
 21
283.000000
  0
LINE
  8
1
 62
7
  6
CONTINUOUS
 10
134.500000
 20
273.500000
 11
135.000000
 21
274.000000
  0
LINE
  8
1
 62
7
  6
CONTINUOUS
 10
55.500000
 20
273.500000
 11
134.500000
 21
273.500000
  0
LINE
  8
1
 62
7
  6
CONTINUOUS
 10
55.000000
 20
274.000000
 11
55.500000
 21
273.500000
  0
LINE
  8
1
 62
7
  6
CONTINUOUS
 10
134.500000
 20
283.500000
 11
55.500000
 21
283.500000
  0
LINE
  8
1
 62
7
  6
CONTINUOUS
 10
55.000000
 20
283.000000
 11
55.000000
 21
274.000000
  0
LINE
  8
1
 62
7
  6
CONTINUOUS
 10
55.500000
 20
283.500000
 11
55.000000
 21
283.000000
  0
LINE
  8
1
 62
7
  6
DASHDOT
 10
705.000000
 20
341.500000
 11
705.000000
 21
268.500000
  0
CIRCLE
  8
1
 62
7
  6
CONTINUOUS
 10
749.000000
 20
317.500000
 40
8.500000
  0
CIRCLE
  8
1
 62
7
  6
CONTINUOUS
 10
749.000000
 20
317.500000
 40
7.500000
  0
CIRCLE
  8
1
 62
7
  6
CONTINUOUS
 10
746.250000
 20
322.263140
 40
1.050000
  0
CIRCLE
  8
1
 62
7
  6
CONTINUOUS
 10
751.750000
 20
312.736860
 40
1.050000
  0
LINE
  8
1
 62
7
  6
DASHDOT
 10
749.000000
 20
307.000000
 11
749.000000
 21
328.500000
  0
CIRCLE
  8
1
 62
7
  6
CONTINUOUS
 10
749.000000
 20
292.500000
 40
8.500000
  0
CIRCLE
  8
1
 62
7
  6
CONTINUOUS
 10
749.000000
 20
292.500000
 40
7.500000
  0
LINE
  8
1
 62
7
  6
DASHDOT
 10
749.000000
 20
303.000000
 11
749.000000
 21
281.500000
  0
CIRCLE
  8
1
 62
7
  6
CONTINUOUS
 10
751.750000
 20
287.736860
 40
1.050000
  0
CIRCLE
  8
1
 62
7
  6
CONTINUOUS
 10
746.250000
 20
297.263140
 40
1.050000
  0
CIRCLE
  8
1
 62
7
  6
CONTINUOUS
 10
775.167728
 20
305.000000
 40
8.500000
  0
CIRCLE
  8
1
 62
7
  6
CONTINUOUS
 10
775.167728
 20
305.000000
 40
7.500000
  0
CIRCLE
  8
1
 62
7
  6
CONTINUOUS
 10
772.417728
 20
309.763140
 40
1.050000
  0
CIRCLE
  8
1
 62
7
  6
CONTINUOUS
 10
777.917728
 20
300.236860
 40
1.050000
  0
LINE
  8
1
 62
7
  6
CONTINUOUS
 10
778.831521
 20
312.669851
 11
752.663793
 21
325.169851
  0
LINE
  8
1
 62
7
  6
CONTINUOUS
 10
771.503935
 20
297.330149
 11
745.336207
 21
309.830149
  0
LINE
  8
1
 62
7
  6
CONTINUOUS
 10
778.831521
 20
297.330149
 11
752.663793
 21
284.830149
  0
LINE
  8
1
 62
7
  6
DASHDOT
 10
775.167728
 20
294.500000
 11
775.167728
 21
315.500000
  0
CIRCLE
  8
1
 62
7
  6
CONTINUOUS
 10
722.832272
 20
305.000000
 40
8.500000
  0
CIRCLE
  8
1
 62
7
  6
CONTINUOUS
 10
722.832272
 20
305.000000
 40
7.500000
  0
CIRCLE
  8
1
 62
7
  6
CONTINUOUS
 10
720.082272
 20
309.763140
 40
1.050000
  0
CIRCLE
  8
1
 62
7
  6
CONTINUOUS
 10
725.582272
 20
300.236860
 40
1.050000
  0
LINE
  8
1
 62
7
  6
DASHDOT
 10
722.832272
 20
294.500000
 11
722.832272
 21
315.500000
  0
LINE
  8
1
 62
7
  6
CONTINUOUS
 10
745.336207
 20
325.169851
 11
719.168479
 21
312.669851
  0
LINE
  8
1
 62
7
  6
CONTINUOUS
 10
726.496065
 20
312.669851
 11
752.663793
 21
300.169851
  0
LINE
  8
1
 62
7
  6
CONTINUOUS
 10
719.168479
 20
297.330149
 11
745.336207
 21
284.830149
  0
LINE
  8
1
 62
7
  6
CONTINUOUS
 10
755.447728
 20
305.000000
 11
749.000000
 21
301.920000
  0
LINE
  8
1
 62
7
  6
CONTINUOUS
 10
742.552272
 20
305.000000
 11
749.000000
 21
308.080000
  0
ARC
  8
1
 62
7
  6
CONTINUOUS
 10
749.000000
 20
292.500000
 40
10.000000
 50
-64.158067
 51
-32.678440
  0
ARC
  8
1
 62
7
  6
CONTINUOUS
 10
749.000000
 20
292.500000
 40
9.500000
 50
-71.328282
 51
-37.941419
  0
ARC
  8
1
 62
7
  6
CONTINUOUS
 10
749.000000
 20
292.500000
 40
9.500000
 50
-142.058581
 51
-108.671718
  0
ARC
  8
1
 62
7
  6
CONTINUOUS
 10
749.000000
 20
292.500000
 40
10.000000
 50
-147.321560
 51
-115.841933
  0
ARC
  8
1
 62
7
  6
CONTINUOUS
 10
749.000000
 20
317.500000
 40
10.000000
 50
32.678440
 51
64.158067
  0
ARC
  8
1
 62
7
  6
CONTINUOUS
 10
749.000000
 20
317.500000
 40
9.500000
 50
37.941419
 51
71.328282
  0
ARC
  8
1
 62
7
  6
CONTINUOUS
 10
749.000000
 20
317.500000
 40
9.500000
 50
108.671718
 51
142.058581
  0
ARC
  8
1
 62
7
  6
CONTINUOUS
 10
749.000000
 20
317.500000
 40
10.000000
 50
115.841933
 51
147.321560
  0
LINE
  8
1
 62
7
  6
DASHDOT
 10
759.500000
 20
317.500000
 11
738.500000
 21
317.500000
  0
LINE
  8
1
 62
7
  6
DASHDOT
 10
759.500000
 20
292.500000
 11
738.500000
 21
292.500000
  0
CIRCLE
  8
1
 62
7
  6
CONTINUOUS
 10
661.000000
 20
317.500000
 40
8.500000
  0
CIRCLE
  8
1
 62
7
  6
CONTINUOUS
 10
661.000000
 20
317.500000
 40
7.500000
  0
CIRCLE
  8
1
 62
7
  6
CONTINUOUS
 10
658.250000
 20
322.263140
 40
1.050000
  0
CIRCLE
  8
1
 62
7
  6
CONTINUOUS
 10
663.750000
 20
312.736860
 40
1.050000
  0
LINE
  8
1
 62
7
  6
DASHDOT
 10
661.000000
 20
307.000000
 11
661.000000
 21
328.500000
  0
CIRCLE
  8
1
 62
7
  6
CONTINUOUS
 10
661.000000
 20
292.500000
 40
8.500000
  0
CIRCLE
  8
1
 62
7
  6
CONTINUOUS
 10
661.000000
 20
292.500000
 40
7.500000
  0
LINE
  8
1
 62
7
  6
DASHDOT
 10
661.000000
 20
303.000000
 11
661.000000
 21
281.500000
  0
CIRCLE
  8
1
 62
7
  6
CONTINUOUS
 10
663.750000
 20
287.736860
 40
1.050000
  0
CIRCLE
  8
1
 62
7
  6
CONTINUOUS
 10
658.250000
 20
297.263140
 40
1.050000
  0
CIRCLE
  8
1
 62
7
  6
CONTINUOUS
 10
687.167728
 20
305.000000
 40
8.500000
  0
CIRCLE
  8
1
 62
7
  6
CONTINUOUS
 10
687.167728
 20
305.000000
 40
7.500000
  0
CIRCLE
  8
1
 62
7
  6
CONTINUOUS
 10
684.417728
 20
309.763140
 40
1.050000
  0
CIRCLE
  8
1
 62
7
  6
CONTINUOUS
 10
689.917728
 20
300.236860
 40
1.050000
  0
LINE
  8
1
 62
7
  6
CONTINUOUS
 10
690.831521
 20
312.669851
 11
664.663793
 21
325.169851
  0
LINE
  8
1
 62
7
  6
CONTINUOUS
 10
683.503935
 20
297.330149
 11
657.336207
 21
309.830149
  0
LINE
  8
1
 62
7
  6
CONTINUOUS
 10
690.831521
 20
297.330149
 11
664.663793
 21
284.830149
  0
LINE
  8
1
 62
7
  6
DASHDOT
 10
687.167728
 20
294.500000
 11
687.167728
 21
315.500000
  0
CIRCLE
  8
1
 62
7
  6
CONTINUOUS
 10
634.832272
 20
305.000000
 40
8.500000
  0
CIRCLE
  8
1
 62
7
  6
CONTINUOUS
 10
634.832272
 20
305.000000
 40
7.500000
  0
CIRCLE
  8
1
 62
7
  6
CONTINUOUS
 10
632.082272
 20
309.763140
 40
1.050000
  0
CIRCLE
  8
1
 62
7
  6
CONTINUOUS
 10
637.582272
 20
300.236860
 40
1.050000
  0
LINE
  8
1
 62
7
  6
CONTINUOUS
 10
657.336207
 20
325.169851
 11
631.168479
 21
312.669851
  0
LINE
  8
1
 62
7
  6
CONTINUOUS
 10
638.496065
 20
312.669851
 11
664.663793
 21
300.169851
  0
LINE
  8
1
 62
7
  6
CONTINUOUS
 10
631.168479
 20
297.330149
 11
657.336207
 21
284.830149
  0
LINE
  8
1
 62
7
  6
CONTINUOUS
 10
667.447728
 20
305.000000
 11
661.000000
 21
301.920000
  0
LINE
  8
1
 62
7
  6
CONTINUOUS
 10
654.552272
 20
305.000000
 11
661.000000
 21
308.080000
  0
ARC
  8
1
 62
7
  6
CONTINUOUS
 10
661.000000
 20
292.500000
 40
10.000000
 50
-64.158067
 51
-32.678440
  0
ARC
  8
1
 62
7
  6
CONTINUOUS
 10
661.000000
 20
292.500000
 40
9.500000
 50
-71.328282
 51
-37.941419
  0
ARC
  8
1
 62
7
  6
CONTINUOUS
 10
661.000000
 20
292.500000
 40
9.500000
 50
-142.058581
 51
-108.671718
  0
ARC
  8
1
 62
7
  6
CONTINUOUS
 10
661.000000
 20
292.500000
 40
10.000000
 50
-147.321560
 51
-115.841933
  0
ARC
  8
1
 62
7
  6
CONTINUOUS
 10
661.000000
 20
317.500000
 40
10.000000
 50
32.678440
 51
64.158067
  0
ARC
  8
1
 62
7
  6
CONTINUOUS
 10
661.000000
 20
317.500000
 40
9.500000
 50
37.941419
 51
71.328282
  0
ARC
  8
1
 62
7
  6
CONTINUOUS
 10
661.000000
 20
317.500000
 40
9.500000
 50
108.671718
 51
142.058581
  0
ARC
  8
1
 62
7
  6
CONTINUOUS
 10
661.000000
 20
317.500000
 40
10.000000
 50
115.841933
 51
147.321560
  0
LINE
  8
1
 62
7
  6
DASHDOT
 10
671.500000
 20
317.500000
 11
650.500000
 21
317.500000
  0
LINE
  8
1
 62
7
  6
DASHDOT
 10
671.500000
 20
292.500000
 11
650.500000
 21
292.500000
  0
LINE
  8
1
 62
7
  6
CONTINUOUS
 10
770.500000
 20
336.500000
 11
771.000000
 21
336.000000
  0
LINE
  8
1
 62
7
  6
CONTINUOUS
 10
771.000000
 20
336.000000
 11
771.000000
 21
327.000000
  0
LINE
  8
1
 62
7
  6
CONTINUOUS
 10
770.500000
 20
326.500000
 11
771.000000
 21
327.000000
  0
LINE
  8
1
 62
7
  6
CONTINUOUS
 10
639.500000
 20
336.500000
 11
770.500000
 21
336.500000
  0
LINE
  8
1
 62
7
  6
CONTINUOUS
 10
639.000000
 20
336.000000
 11
639.500000
 21
336.500000
  0
LINE
  8
1
 62
7
  6
CONTINUOUS
 10
770.500000
 20
326.500000
 11
639.500000
 21
326.500000
  0
LINE
  8
1
 62
7
  6
CONTINUOUS
 10
639.000000
 20
327.000000
 11
639.000000
 21
336.000000
  0
LINE
  8
1
 62
7
  6
CONTINUOUS
 10
639.500000
 20
326.500000
 11
639.000000
 21
327.000000
  0
LINE
  8
1
 62
7
  6
CONTINUOUS
 10
625.000000
 20
283.000000
 11
625.500000
 21
283.500000
  0
LINE
  8
1
 62
7
  6
CONTINUOUS
 10
625.000000
 20
274.000000
 11
625.000000
 21
283.000000
  0
LINE
  8
1
 62
7
  6
CONTINUOUS
 10
625.500000
 20
273.500000
 11
625.000000
 21
274.000000
  0
LINE
  8
1
 62
7
  6
CONTINUOUS
 10
784.500000
 20
273.500000
 11
625.500000
 21
273.500000
  0
LINE
  8
1
 62
7
  6
CONTINUOUS
 10
785.000000
 20
274.000000
 11
784.500000
 21
273.500000
  0
LINE
  8
1
 62
7
  6
CONTINUOUS
 10
625.500000
 20
283.500000
 11
784.500000
 21
283.500000
  0
LINE
  8
1
 62
7
  6
CONTINUOUS
 10
785.000000
 20
283.000000
 11
785.000000
 21
274.000000
  0
LINE
  8
1
 62
7
  6
CONTINUOUS
 10
784.500000
 20
283.500000
 11
785.000000
 21
283.000000
  0
LINE
  8
1
 62
7
  6
CONTINUOUS
 10
713.832272
 20
310.500000
 11
714.332272
 21
311.000000
  0
LINE
  8
1
 62
7
  6
CONTINUOUS
 10
713.832272
 20
299.500000
 11
714.332272
 21
299.000000
  0
LINE
  8
1
 62
7
  6
CONTINUOUS
 10
694.467728
 20
313.000000
 11
695.667728
 21
313.000000
  0
ARC
  8
1
 62
7
  6
CONTINUOUS
 10
694.467728
 20
312.700000
 40
0.300000
 50
90.000000
 51
180.000000
  0
LINE
  8
1
 62
7
  6
CONTINUOUS
 10
697.667728
 20
313.000000
 11
698.867728
 21
313.000000
  0
ARC
  8
1
 62
7
  6
CONTINUOUS
 10
698.867728
 20
312.700000
 40
0.300000
 50
0.000000
 51
90.000000
  0
LINE
  8
1
 62
7
  6
CONTINUOUS
 10
698.867728
 20
297.000000
 11
697.667728
 21
297.000000
  0
ARC
  8
1
 62
7
  6
CONTINUOUS
 10
698.867728
 20
297.300000
 40
0.300000
 50
-90.000000
 51
0.000000
  0
LINE
  8
1
 62
7
  6
CONTINUOUS
 10
695.667728
 20
297.000000
 11
694.467728
 21
297.000000
  0
ARC
  8
1
 62
7
  6
CONTINUOUS
 10
694.467728
 20
297.300000
 40
0.300000
 50
180.000000
 51
-90.000000
  0
ARC
  8
1
 62
7
  6
CONTINUOUS
 10
696.667728
 20
311.000000
 40
1.250000
 50
-143.130102
 51
-135.336341
  0
ARC
  8
1
 62
7
  6
CONTINUOUS
 10
696.667728
 20
311.000000
 40
1.250000
 50
-44.663659
 51
-36.869898
  0
ARC
  8
1
 62
7
  6
CONTINUOUS
 10
696.667728
 20
309.242641
 40
1.250000
 50
36.869898
 51
50.208180
  0
ARC
  8
1
 62
7
  6
CONTINUOUS
 10
696.667728
 20
309.242641
 40
1.250000
 50
129.791819
 51
143.130102
  0
ARC
  8
1
 62
7
  6
CONTINUOUS
 10
696.667728
 20
311.000000
 40
1.250000
 50
36.869898
 51
50.208180
  0
ARC
  8
1
 62
7
  6
CONTINUOUS
 10
696.667728
 20
311.000000
 40
1.250000
 50
129.791819
 51
143.130102
  0
ARC
  8
1
 62
7
  6
CONTINUOUS
 10
696.667728
 20
309.242641
 40
1.250000
 50
-143.130102
 51
-129.791819
  0
ARC
  8
1
 62
7
  6
CONTINUOUS
 10
696.667728
 20
309.242641
 40
1.250000
 50
-50.208180
 51
-36.869898
  0
ARC
  8
1
 62
7
  6
CONTINUOUS
 10
696.667728
 20
299.000000
 40
1.250000
 50
135.336341
 51
143.130102
  0
ARC
  8
1
 62
7
  6
CONTINUOUS
 10
696.667728
 20
299.000000
 40
1.250000
 50
36.869898
 51
44.663659
  0
ARC
  8
1
 62
7
  6
CONTINUOUS
 10
696.667728
 20
300.757359
 40
1.250000
 50
-50.208180
 51
-36.869898
  0
ARC
  8
1
 62
7
  6
CONTINUOUS
 10
696.667728
 20
300.757359
 40
1.250000
 50
-143.130102
 51
-129.791819
  0
ARC
  8
1
 62
7
  6
CONTINUOUS
 10
696.667728
 20
299.000000
 40
1.250000
 50
-50.208180
 51
-36.869898
  0
ARC
  8
1
 62
7
  6
CONTINUOUS
 10
696.667728
 20
299.000000
 40
1.250000
 50
-143.130102
 51
-129.791819
  0
ARC
  8
1
 62
7
  6
CONTINUOUS
 10
696.667728
 20
300.757359
 40
1.250000
 50
129.791819
 51
143.130102
  0
ARC
  8
1
 62
7
  6
CONTINUOUS
 10
696.667728
 20
300.757359
 40
1.250000
 50
36.869898
 51
50.208180
  0
LINE
  8
1
 62
7
  6
CONTINUOUS
 10
697.267728
 20
313.000000
 11
695.867728
 21
313.000000
  0
ARC
  8
1
 62
7
  6
CONTINUOUS
 10
697.267728
 20
312.800000
 40
0.200000
 50
0.000000
 51
90.000000
  0
LINE
  8
1
 62
7
  6
CONTINUOUS
 10
697.267728
 20
297.000000
 11
695.867728
 21
297.000000
  0
ARC
  8
1
 62
7
  6
CONTINUOUS
 10
697.267728
 20
297.200000
 40
0.200000
 50
-90.000000
 51
0.000000
  0
LINE
  8
1
 62
7
  6
CONTINUOUS
 10
699.367728
 20
313.000000
 11
699.167728
 21
312.800000
  0
LINE
  8
1
 62
7
  6
CONTINUOUS
 10
699.367728
 20
313.000000
 11
704.967728
 21
313.000000
  0
LINE
  8
1
 62
7
  6
CONTINUOUS
 10
705.167728
 20
312.800000
 11
704.967728
 21
313.000000
  0
LINE
  8
1
 62
7
  6
CONTINUOUS
 10
704.967728
 20
297.000000
 11
705.167728
 21
297.200000
  0
LINE
  8
1
 62
7
  6
CONTINUOUS
 10
704.967728
 20
297.000000
 11
699.367728
 21
297.000000
  0
LINE
  8
1
 62
7
  6
CONTINUOUS
 10
699.167728
 20
297.200000
 11
699.367728
 21
297.000000
  0
LINE
  8
1
 62
7
  6
CONTINUOUS
 10
705.167728
 20
309.000000
 11
713.832272
 21
309.000000
  0
LINE
  8
1
 62
7
  6
CONTINUOUS
 10
713.832272
 20
301.000000
 11
705.167728
 21
301.000000
  0
LINE
  8
1
 62
7
  6
CONTINUOUS
 10
705.167728
 20
308.500000
 11
713.832272
 21
308.500000
  0
LINE
  8
1
 62
7
  6
CONTINUOUS
 10
705.167728
 20
301.500000
 11
713.832272
 21
301.500000
  0
LINE
  8
1
 62
7
  6
CONTINUOUS
 10
714.332272
 20
302.000000
 11
714.332272
 21
299.000000
  0
LINE
  8
1
 62
7
  6
CONTINUOUS
 10
714.332272
 20
311.000000
 11
714.332272
 21
308.000000
  0
LINE
  8
1
 62
7
  6
CONTINUOUS
 10
713.832272
 20
302.000000
 11
713.832272
 21
299.500000
  0
LINE
  8
1
 62
7
  6
CONTINUOUS
 10
713.832272
 20
310.500000
 11
713.832272
 21
308.000000
  0
LINE
  8
1
 62
7
  6
CONTINUOUS
 10
705.167728
 20
302.000000
 11
705.167728
 21
297.200000
  0
LINE
  8
1
 62
7
  6
CONTINUOUS
 10
705.167728
 20
312.800000
 11
705.167728
 21
308.000000
  0
LINE
  8
1
 62
7
  6
CONTINUOUS
 10
704.967728
 20
308.000000
 11
704.967728
 21
313.000000
  0
LINE
  8
1
 62
7
  6
CONTINUOUS
 10
704.967728
 20
297.000000
 11
704.967728
 21
302.000000
  0
LINE
  8
1
 62
7
  6
CONTINUOUS
 10
699.367728
 20
302.000000
 11
699.367728
 21
297.000000
  0
LINE
  8
1
 62
7
  6
CONTINUOUS
 10
699.367728
 20
313.000000
 11
699.367728
 21
308.000000
  0
LINE
  8
1
 62
7
  6
CONTINUOUS
 10
699.167728
 20
308.000000
 11
699.167728
 21
312.800000
  0
LINE
  8
1
 62
7
  6
CONTINUOUS
 10
699.167728
 20
297.200000
 11
699.167728
 21
302.000000
  0
LINE
  8
1
 62
7
  6
CONTINUOUS
 10
697.667728
 20
302.000000
 11
697.667728
 21
297.000000
  0
LINE
  8
1
 62
7
  6
CONTINUOUS
 10
697.667728
 20
313.000000
 11
697.667728
 21
308.000000
  0
LINE
  8
1
 62
7
  6
CONTINUOUS
 10
697.467728
 20
302.000000
 11
697.467728
 21
297.200000
  0
LINE
  8
1
 62
7
  6
CONTINUOUS
 10
697.467728
 20
312.800000
 11
697.467728
 21
308.000000
  0
LINE
  8
1
 62
7
  6
CONTINUOUS
 10
695.867728
 20
308.000000
 11
695.867728
 21
313.000000
  0
LINE
  8
1
 62
7
  6
CONTINUOUS
 10
695.867728
 20
297.000000
 11
695.867728
 21
302.000000
  0
LINE
  8
1
 62
7
  6
CONTINUOUS
 10
695.667728
 20
302.000000
 11
695.667728
 21
297.000000
  0
LINE
  8
1
 62
7
  6
CONTINUOUS
 10
695.667728
 20
313.000000
 11
695.667728
 21
308.000000
  0
LINE
  8
1
 62
7
  6
CONTINUOUS
 10
748.832527
 20
308.000000
 11
749.167473
 21
308.000000
  0
LINE
  8
1
 62
7
  6
CONTINUOUS
 10
748.832527
 20
302.000000
 11
749.167473
 21
302.000000
  0
LINE
  8
1
 62
7
  6
CONTINUOUS
 10
661.167473
 20
308.000000
 11
660.832527
 21
308.000000
  0
LINE
  8
1
 62
7
  6
CONTINUOUS
 10
661.167473
 20
302.000000
 11
660.832527
 21
302.000000
  0
LINE
  8
1
 62
7
  6
CONTINUOUS
 10
628.832272
 20
311.708204
 11
628.832272
 21
313.122499
  0
LINE
  8
1
 62
7
  6
CONTINUOUS
 10
628.832272
 20
313.122499
 11
629.332272
 21
313.622499
  0
LINE
  8
1
 62
7
  6
CONTINUOUS
 10
629.832272
 20
314.622499
 11
629.832272
 21
320.222499
  0
LINE
  8
1
 62
7
  6
CONTINUOUS
 10
639.132272
 20
320.622499
 11
630.532272
 21
320.622499
  0
LINE
  8
1
 62
7
  6
CONTINUOUS
 10
629.832272
 20
320.222499
 11
639.832272
 21
320.222499
  0
LINE
  8
1
 62
7
  6
CONTINUOUS
 10
639.832272
 20
320.222499
 11
639.132272
 21
320.622499
  0
LINE
  8
1
 62
7
  6
CONTINUOUS
 10
630.532272
 20
320.622499
 11
629.832272
 21
320.222499
  0
LINE
  8
1
 62
7
  6
CONTINUOUS
 10
628.832272
 20
313.622499
 11
632.253026
 21
313.622499
  0
LINE
  8
1
 62
7
  6
CONTINUOUS
 10
628.832272
 20
314.622499
 11
628.832272
 21
313.622499
  0
ARC
  8
1
 62
7
  6
CONTINUOUS
 10
775.167728
 20
305.000000
 40
9.000000
 50
-83.654908
 51
83.654908
  0
LINE
  8
1
 62
7
  6
DASHDOT
 10
789.167728
 20
305.000000
 11
592.167728
 21
305.000000
  0
ARC
  8
1
 62
7
  6
CONTINUOUS
 10
722.832272
 20
305.000000
 40
9.000000
 50
96.345092
 51
-96.345092
  0
LINE
  8
1
 62
7
  6
CONTINUOUS
 10
714.332272
 20
299.000000
 11
716.124068
 21
299.000000
  0
LINE
  8
1
 62
7
  6
CONTINUOUS
 10
714.332272
 20
311.000000
 11
716.124068
 21
311.000000
  0
ARC
  8
1
 62
7
  6
CONTINUOUS
 10
687.167728
 20
305.000000
 40
9.000000
 50
-83.654908
 51
83.654908
  0
LINE
  8
1
 62
7
  6
CONTINUOUS
 10
694.167728
 20
312.700000
 11
694.167728
 21
310.656854
  0
LINE
  8
1
 62
7
  6
CONTINUOUS
 10
694.167728
 20
299.343146
 11
694.167728
 21
297.300000
  0
LINE
  8
1
 62
7
  6
CONTINUOUS
 10
695.667728
 20
302.000000
 11
714.332272
 21
302.000000
  0
LINE
  8
1
 62
7
  6
CONTINUOUS
 10
714.332272
 20
308.000000
 11
695.667728
 21
308.000000
  0
ARC
  8
1
 62
7
  6
CONTINUOUS
 10
634.832272
 20
305.000000
 40
9.000000
 50
96.345092
 51
-96.345092
  0
LINE
  8
1
 62
7
  6
CONTINUOUS
 10
613.167728
 20
309.000000
 11
626.770014
 21
309.000000
  0
LINE
  8
1
 62
7
  6
CONTINUOUS
 10
626.770014
 20
301.000000
 11
613.167728
 21
301.000000
  0
LINE
  8
1
 62
7
  6
CONTINUOUS
 10
628.832272
 20
313.122499
 11
630.956061
 21
313.122499
  0
LINE
  8
1
 62
7
  6
CONTINUOUS
 10
635.256187
 20
314.622499
 11
628.832272
 21
314.622499
  0
LINE
  8
1
 62
7
  6
CONTINUOUS
 10
639.832272
 20
316.808438
 11
639.832272
 21
320.222499
  0
LINE
  8
1
 62
7
  6
CONTINUOUS
 10
628.832272
 20
296.877501
 11
628.832272
 21
298.291796
  0
LINE
  8
1
 62
7
  6
CONTINUOUS
 10
629.332272
 20
296.377501
 11
632.253026
 21
296.377501
  0
LINE
  8
1
 62
7
  6
CONTINUOUS
 10
628.832272
 20
296.877501
 11
629.332272
 21
296.377501
  0
LINE
  8
1
 62
7
  6
CONTINUOUS
 10
628.832272
 20
296.877501
 11
630.956061
 21
296.877501
  0
LINE
  8
1
 62
7
  6
CONTINUOUS
 10
598.667728
 20
326.500000
 11
599.667728
 21
327.500000
  0
LINE
  8
1
 62
7
  6
CONTINUOUS
 10
610.667728
 20
327.500000
 11
599.667728
 21
327.500000
  0
LINE
  8
1
 62
7
  6
CONTINUOUS
 10
611.667728
 20
326.500000
 11
610.667728
 21
327.500000
  0
LINE
  8
1
 62
7
  6
CONTINUOUS
 10
597.667728
 20
326.000000
 11
598.667728
 21
326.000000
  0
LINE
  8
1
 62
7
  6
CONTINUOUS
 10
597.667728
 20
326.000000
 11
597.167728
 21
325.500000
  0
LINE
  8
1
 62
7
  6
CONTINUOUS
 10
612.667728
 20
326.000000
 11
611.667728
 21
326.000000
  0
LINE
  8
1
 62
7
  6
CONTINUOUS
 10
613.167728
 20
325.500000
 11
612.667728
 21
326.000000
  0
LINE
  8
1
 62
7
  6
CONTINUOUS
 10
597.667728
 20
284.000000
 11
598.667728
 21
284.000000
  0
LINE
  8
1
 62
7
  6
CONTINUOUS
 10
597.167728
 20
325.500000
 11
597.167728
 21
284.500000
  0
LINE
  8
1
 62
7
  6
CONTINUOUS
 10
597.667728
 20
284.000000
 11
597.167728
 21
284.500000
  0
LINE
  8
1
 62
7
  6
CONTINUOUS
 10
612.667728
 20
284.000000
 11
611.667728
 21
284.000000
  0
LINE
  8
1
 62
7
  6
CONTINUOUS
 10
613.167728
 20
284.500000
 11
612.667728
 21
284.000000
  0
LINE
  8
1
 62
7
  6
CONTINUOUS
 10
610.667728
 20
282.500000
 11
611.667728
 21
283.500000
  0
LINE
  8
1
 62
7
  6
CONTINUOUS
 10
599.667728
 20
282.500000
 11
610.667728
 21
282.500000
  0
LINE
  8
1
 62
7
  6
CONTINUOUS
 10
598.667728
 20
283.500000
 11
599.667728
 21
282.500000
  0
LINE
  8
1
 62
7
  6
CONTINUOUS
 10
609.667728
 20
326.500000
 11
599.667728
 21
326.500000
  0
LINE
  8
1
 62
7
  6
CONTINUOUS
 10
599.667728
 20
325.500000
 11
608.667728
 21
325.500000
  0
LINE
  8
1
 62
7
  6
CONTINUOUS
 10
607.667728
 20
324.500000
 11
599.667728
 21
324.500000
  0
LINE
  8
1
 62
7
  6
CONTINUOUS
 10
599.667728
 20
323.500000
 11
606.667728
 21
323.500000
  0
LINE
  8
1
 62
7
  6
CONTINUOUS
 10
605.667728
 20
322.500000
 11
599.667728
 21
322.500000
  0
LINE
  8
1
 62
7
  6
CONTINUOUS
 10
599.667728
 20
321.500000
 11
604.667728
 21
321.500000
  0
LINE
  8
1
 62
7
  6
CONTINUOUS
 10
613.167728
 20
284.500000
 11
613.167728
 21
325.500000
  0
LINE
  8
1
 62
7
  6
CONTINUOUS
 10
611.667728
 20
326.500000
 11
611.667728
 21
283.500000
  0
LINE
  8
1
 62
7
  6
CONTINUOUS
 10
598.667728
 20
283.500000
 11
598.667728
 21
326.500000
  0
LINE
  8
1
 62
7
  6
CONTINUOUS
 10
612.667728
 20
326.000000
 11
612.667728
 21
284.000000
  0
LINE
  8
1
 62
7
  6
CONTINUOUS
 10
610.667728
 20
327.500000
 11
610.667728
 21
282.500000
  0
LINE
  8
1
 62
7
  6
CONTINUOUS
 10
599.667728
 20
327.500000
 11
599.667728
 21
282.500000
  0
LINE
  8
1
 62
7
  6
CONTINUOUS
 10
597.667728
 20
326.000000
 11
597.667728
 21
284.000000
  0
LINE
  8
1
 62
7
  6
CONTINUOUS
 10
600.667728
 20
283.500000
 11
610.667728
 21
283.500000
  0
LINE
  8
1
 62
7
  6
CONTINUOUS
 10
610.667728
 20
284.500000
 11
601.667728
 21
284.500000
  0
LINE
  8
1
 62
7
  6
CONTINUOUS
 10
602.667728
 20
285.500000
 11
610.667728
 21
285.500000
  0
LINE
  8
1
 62
7
  6
CONTINUOUS
 10
610.667728
 20
286.500000
 11
603.667728
 21
286.500000
  0
LINE
  8
1
 62
7
  6
CONTINUOUS
 10
604.667728
 20
287.500000
 11
610.667728
 21
287.500000
  0
LINE
  8
1
 62
7
  6
CONTINUOUS
 10
610.667728
 20
288.500000
 11
605.667728
 21
288.500000
  0
LINE
  8
1
 62
7
  6
CONTINUOUS
 10
638.332272
 20
316.622499
 11
638.332272
 21
320.222499
  0
LINE
  8
1
 62
7
  6
CONTINUOUS
 10
637.632272
 20
317.622499
 11
637.632272
 21
320.222499
  0
LINE
  8
1
 62
7
  6
CONTINUOUS
 10
636.732272
 20
318.622499
 11
636.732272
 21
320.222499
  0
LINE
  8
1
 62
7
  6
CONTINUOUS
 10
635.832272
 20
319.622499
 11
635.832272
 21
320.222499
  0
LINE
  8
1
 62
7
  6
CONTINUOUS
 10
639.432272
 20
316.617363
 11
639.432272
 21
320.222499
  0
LINE
  8
1
 62
7
  6
CONTINUOUS
 10
638.932272
 20
316.378519
 11
638.932272
 21
320.222499
  0
LINE
  8
1
 62
7
  6
DASHDOT
 10
634.832272
 20
294.500000
 11
634.832272
 21
322.622499
  0
LINE
  8
1
 62
7
  6
DASHDOT
 10
355.167728
 20
294.500000
 11
355.167728
 21
322.622499
  0
LINE
  8
1
 62
7
  6
DASHDOT
 10
495.000000
 20
268.500000
 11
495.000000
 21
341.500000
  0
LINE
  8
1
 62
7
  6
CONTINUOUS
 10
524.000000
 20
313.500000
 11
523.500000
 21
314.000000
  0
LINE
  8
1
 62
7
  6
CONTINUOUS
 10
523.500000
 20
296.000000
 11
524.000000
 21
296.500000
  0
LINE
  8
1
 62
7
  6
CONTINUOUS
 10
523.500000
 20
296.000000
 11
523.500000
 21
314.000000
  0
LINE
  8
1
 62
7
  6
CONTINUOUS
 10
524.000000
 20
296.500000
 11
527.000000
 21
296.500000
  0
LINE
  8
1
 62
7
  6
CONTINUOUS
 10
527.000000
 20
296.500000
 11
527.000000
 21
326.000000
  0
LINE
  8
1
 62
7
  6
CONTINUOUS
 10
524.000000
 20
326.000000
 11
527.000000
 21
326.000000
  0
LINE
  8
1
 62
7
  6
CONTINUOUS
 10
527.000000
 20
297.500000
 11
527.250000
 21
297.500000
  0
LINE
  8
1
 62
7
  6
CONTINUOUS
 10
527.250000
 20
312.500000
 11
527.000000
 21
312.500000
  0
LINE
  8
1
 62
7
  6
CONTINUOUS
 10
527.250000
 20
313.500000
 11
530.250000
 21
313.500000
  0
LINE
  8
1
 62
7
  6
CONTINUOUS
 10
530.250000
 20
313.500000
 11
530.250000
 21
284.000000
  0
LINE
  8
1
 62
7
  6
CONTINUOUS
 10
527.250000
 20
284.000000
 11
530.250000
 21
284.000000
  0
LINE
  8
1
 62
7
  6
CONTINUOUS
 10
527.250000
 20
284.000000
 11
527.250000
 21
313.500000
  0
LINE
  8
1
 62
7
  6
CONTINUOUS
 10
531.250000
 20
296.500000
 11
531.250000
 21
313.500000
  0
LINE
  8
1
 62
7
  6
CONTINUOUS
 10
531.250000
 20
296.500000
 11
530.250000
 21
296.500000
  0
LINE
  8
1
 62
7
  6
CONTINUOUS
 10
531.250000
 20
313.500000
 11
530.250000
 21
313.500000
  0
LINE
  8
1
 62
7
  6
CONTINUOUS
 10
531.250000
 20
296.500000
 11
533.250000
 21
296.500000
  0
LINE
  8
1
 62
7
  6
CONTINUOUS
 10
533.250000
 20
296.500000
 11
534.250000
 21
297.500000
  0
LINE
  8
1
 62
7
  6
CONTINUOUS
 10
533.250000
 20
313.500000
 11
531.250000
 21
313.500000
  0
LINE
  8
1
 62
7
  6
CONTINUOUS
 10
534.250000
 20
297.500000
 11
534.250000
 21
312.500000
  0
LINE
  8
1
 62
7
  6
CONTINUOUS
 10
533.250000
 20
313.500000
 11
534.250000
 21
312.500000
  0
LINE
  8
1
 62
7
  6
CONTINUOUS
 10
533.250000
 20
296.500000
 11
533.250000
 21
313.500000
  0
LINE
  8
1
 62
7
  6
CONTINUOUS
 10
524.000000
 20
296.500000
 11
524.000000
 21
283.500000
  0
LINE
  8
1
 62
7
  6
CONTINUOUS
 10
523.500000
 20
296.000000
 11
523.500000
 21
283.500000
  0
LINE
  8
1
 62
7
  6
CONTINUOUS
 10
527.000000
 20
296.500000
 11
527.000000
 21
284.000000
  0
LINE
  8
1
 62
7
  6
CONTINUOUS
 10
527.000000
 20
284.000000
 11
524.000000
 21
284.000000
  0
LINE
  8
1
 62
7
  6
CONTINUOUS
 10
527.000000
 20
285.000000
 11
527.250000
 21
285.000000
  0
LINE
  8
1
 62
7
  6
CONTINUOUS
 10
531.250000
 20
284.000000
 11
530.250000
 21
284.000000
  0
LINE
  8
1
 62
7
  6
CONTINUOUS
 10
531.250000
 20
284.000000
 11
533.250000
 21
284.000000
  0
LINE
  8
1
 62
7
  6
CONTINUOUS
 10
533.250000
 20
284.000000
 11
534.250000
 21
285.000000
  0
LINE
  8
1
 62
7
  6
CONTINUOUS
 10
534.250000
 20
285.000000
 11
534.250000
 21
297.500000
  0
LINE
  8
1
 62
7
  6
CONTINUOUS
 10
533.250000
 20
284.000000
 11
533.250000
 21
296.500000
  0
LINE
  8
1
 62
7
  6
CONTINUOUS
 10
531.250000
 20
284.000000
 11
531.250000
 21
296.500000
  0
LINE
  8
1
 62
7
  6
CONTINUOUS
 10
524.000000
 20
296.500000
 11
524.000000
 21
326.500000
  0
LINE
  8
1
 62
7
  6
CONTINUOUS
 10
523.500000
 20
314.000000
 11
523.500000
 21
326.500000
  0
LINE
  8
1
 62
7
  6
CONTINUOUS
 10
527.250000
 20
313.500000
 11
527.250000
 21
326.000000
  0
LINE
  8
1
 62
7
  6
CONTINUOUS
 10
530.250000
 20
313.500000
 11
530.250000
 21
326.000000
  0
LINE
  8
1
 62
7
  6
CONTINUOUS
 10
530.250000
 20
326.000000
 11
527.250000
 21
326.000000
  0
LINE
  8
1
 62
7
  6
CONTINUOUS
 10
527.250000
 20
325.000000
 11
527.000000
 21
325.000000
  0
LINE
  8
1
 62
7
  6
CONTINUOUS
 10
531.250000
 20
326.000000
 11
530.250000
 21
326.000000
  0
LINE
  8
1
 62
7
  6
CONTINUOUS
 10
533.250000
 20
326.000000
 11
531.250000
 21
326.000000
  0
LINE
  8
1
 62
7
  6
CONTINUOUS
 10
533.250000
 20
326.000000
 11
534.250000
 21
325.000000
  0
LINE
  8
1
 62
7
  6
CONTINUOUS
 10
534.250000
 20
312.500000
 11
534.250000
 21
325.000000
  0
LINE
  8
1
 62
7
  6
CONTINUOUS
 10
533.250000
 20
313.500000
 11
533.250000
 21
326.000000
  0
LINE
  8
1
 62
7
  6
CONTINUOUS
 10
531.250000
 20
313.500000
 11
531.250000
 21
326.000000
  0
LINE
  8
1
 62
7
  6
CONTINUOUS
 10
466.000000
 20
313.500000
 11
466.500000
 21
314.000000
  0
LINE
  8
1
 62
7
  6
CONTINUOUS
 10
466.500000
 20
296.000000
 11
466.000000
 21
296.500000
  0
LINE
  8
1
 62
7
  6
CONTINUOUS
 10
466.500000
 20
296.000000
 11
466.500000
 21
314.000000
  0
LINE
  8
1
 62
7
  6
CONTINUOUS
 10
466.000000
 20
296.500000
 11
463.000000
 21
296.500000
  0
LINE
  8
1
 62
7
  6
CONTINUOUS
 10
463.000000
 20
296.500000
 11
463.000000
 21
326.000000
  0
LINE
  8
1
 62
7
  6
CONTINUOUS
 10
466.000000
 20
326.000000
 11
463.000000
 21
326.000000
  0
LINE
  8
1
 62
7
  6
CONTINUOUS
 10
463.000000
 20
297.500000
 11
462.750000
 21
297.500000
  0
LINE
  8
1
 62
7
  6
CONTINUOUS
 10
462.750000
 20
312.500000
 11
463.000000
 21
312.500000
  0
LINE
  8
1
 62
7
  6
CONTINUOUS
 10
462.750000
 20
313.500000
 11
459.750000
 21
313.500000
  0
LINE
  8
1
 62
7
  6
CONTINUOUS
 10
459.750000
 20
313.500000
 11
459.750000
 21
284.000000
  0
LINE
  8
1
 62
7
  6
CONTINUOUS
 10
462.750000
 20
284.000000
 11
459.750000
 21
284.000000
  0
LINE
  8
1
 62
7
  6
CONTINUOUS
 10
462.750000
 20
284.000000
 11
462.750000
 21
313.500000
  0
LINE
  8
1
 62
7
  6
CONTINUOUS
 10
458.750000
 20
296.500000
 11
458.750000
 21
313.500000
  0
LINE
  8
1
 62
7
  6
CONTINUOUS
 10
458.750000
 20
296.500000
 11
459.750000
 21
296.500000
  0
LINE
  8
1
 62
7
  6
CONTINUOUS
 10
458.750000
 20
313.500000
 11
459.750000
 21
313.500000
  0
LINE
  8
1
 62
7
  6
CONTINUOUS
 10
458.750000
 20
296.500000
 11
456.750000
 21
296.500000
  0
LINE
  8
1
 62
7
  6
CONTINUOUS
 10
456.750000
 20
296.500000
 11
455.750000
 21
297.500000
  0
LINE
  8
1
 62
7
  6
CONTINUOUS
 10
456.750000
 20
313.500000
 11
458.750000
 21
313.500000
  0
LINE
  8
1
 62
7
  6
CONTINUOUS
 10
455.750000
 20
297.500000
 11
455.750000
 21
312.500000
  0
LINE
  8
1
 62
7
  6
CONTINUOUS
 10
456.750000
 20
313.500000
 11
455.750000
 21
312.500000
  0
LINE
  8
1
 62
7
  6
CONTINUOUS
 10
456.750000
 20
296.500000
 11
456.750000
 21
313.500000
  0
LINE
  8
1
 62
7
  6
CONTINUOUS
 10
466.000000
 20
296.500000
 11
466.000000
 21
283.500000
  0
LINE
  8
1
 62
7
  6
CONTINUOUS
 10
466.500000
 20
296.000000
 11
466.500000
 21
283.500000
  0
LINE
  8
1
 62
7
  6
CONTINUOUS
 10
463.000000
 20
296.500000
 11
463.000000
 21
284.000000
  0
LINE
  8
1
 62
7
  6
CONTINUOUS
 10
463.000000
 20
284.000000
 11
466.000000
 21
284.000000
  0
LINE
  8
1
 62
7
  6
CONTINUOUS
 10
463.000000
 20
285.000000
 11
462.750000
 21
285.000000
  0
LINE
  8
1
 62
7
  6
CONTINUOUS
 10
458.750000
 20
284.000000
 11
459.750000
 21
284.000000
  0
LINE
  8
1
 62
7
  6
CONTINUOUS
 10
458.750000
 20
284.000000
 11
456.750000
 21
284.000000
  0
LINE
  8
1
 62
7
  6
CONTINUOUS
 10
456.750000
 20
284.000000
 11
455.750000
 21
285.000000
  0
LINE
  8
1
 62
7
  6
CONTINUOUS
 10
455.750000
 20
285.000000
 11
455.750000
 21
297.500000
  0
LINE
  8
1
 62
7
  6
CONTINUOUS
 10
456.750000
 20
284.000000
 11
456.750000
 21
296.500000
  0
LINE
  8
1
 62
7
  6
CONTINUOUS
 10
458.750000
 20
284.000000
 11
458.750000
 21
296.500000
  0
LINE
  8
1
 62
7
  6
CONTINUOUS
 10
466.000000
 20
296.500000
 11
466.000000
 21
326.500000
  0
LINE
  8
1
 62
7
  6
CONTINUOUS
 10
466.500000
 20
314.000000
 11
466.500000
 21
326.500000
  0
LINE
  8
1
 62
7
  6
CONTINUOUS
 10
462.750000
 20
313.500000
 11
462.750000
 21
326.000000
  0
LINE
  8
1
 62
7
  6
CONTINUOUS
 10
459.750000
 20
313.500000
 11
459.750000
 21
326.000000
  0
LINE
  8
1
 62
7
  6
CONTINUOUS
 10
459.750000
 20
326.000000
 11
462.750000
 21
326.000000
  0
LINE
  8
1
 62
7
  6
CONTINUOUS
 10
462.750000
 20
325.000000
 11
463.000000
 21
325.000000
  0
LINE
  8
1
 62
7
  6
CONTINUOUS
 10
458.750000
 20
326.000000
 11
459.750000
 21
326.000000
  0
LINE
  8
1
 62
7
  6
CONTINUOUS
 10
456.750000
 20
326.000000
 11
458.750000
 21
326.000000
  0
LINE
  8
1
 62
7
  6
CONTINUOUS
 10
456.750000
 20
326.000000
 11
455.750000
 21
325.000000
  0
LINE
  8
1
 62
7
  6
CONTINUOUS
 10
455.750000
 20
312.500000
 11
455.750000
 21
325.000000
  0
LINE
  8
1
 62
7
  6
CONTINUOUS
 10
456.750000
 20
313.500000
 11
456.750000
 21
326.000000
  0
LINE
  8
1
 62
7
  6
CONTINUOUS
 10
458.750000
 20
313.500000
 11
458.750000
 21
326.000000
  0
LINE
  8
1
 62
7
  6
DASHDOT
 10
452.750000
 20
292.500000
 11
537.250000
 21
292.500000
  0
LINE
  8
1
 62
7
  6
DASHDOT
 10
452.750000
 20
317.500000
 11
537.250000
 21
317.500000
  0
LINE
  8
1
 62
7
  6
DASHDOT
 10
450.000000
 20
305.000000
 11
540.000000
 21
305.000000
  0
LINE
  8
1
 62
7
  6
CONTINUOUS
 10
455.500000
 20
273.500000
 11
455.000000
 21
274.000000
  0
LINE
  8
1
 62
7
  6
CONTINUOUS
 10
455.500000
 20
273.500000
 11
534.500000
 21
273.500000
  0
LINE
  8
1
 62
7
  6
CONTINUOUS
 10
535.000000
 20
274.000000
 11
534.500000
 21
273.500000
  0
LINE
  8
1
 62
7
  6
CONTINUOUS
 10
535.000000
 20
274.000000
 11
535.000000
 21
283.000000
  0
LINE
  8
1
 62
7
  6
CONTINUOUS
 10
534.500000
 20
283.500000
 11
535.000000
 21
283.000000
  0
LINE
  8
1
 62
7
  6
CONTINUOUS
 10
455.000000
 20
283.000000
 11
455.000000
 21
274.000000
  0
LINE
  8
1
 62
7
  6
CONTINUOUS
 10
455.000000
 20
283.000000
 11
455.500000
 21
283.500000
  0
LINE
  8
1
 62
7
  6
CONTINUOUS
 10
455.000000
 20
327.000000
 11
455.500000
 21
326.500000
  0
LINE
  8
1
 62
7
  6
CONTINUOUS
 10
455.000000
 20
336.000000
 11
455.000000
 21
327.000000
  0
LINE
  8
1
 62
7
  6
CONTINUOUS
 10
455.500000
 20
336.500000
 11
455.000000
 21
336.000000
  0
LINE
  8
1
 62
7
  6
CONTINUOUS
 10
534.500000
 20
336.500000
 11
455.500000
 21
336.500000
  0
LINE
  8
1
 62
7
  6
CONTINUOUS
 10
535.000000
 20
336.000000
 11
534.500000
 21
336.500000
  0
LINE
  8
1
 62
7
  6
CONTINUOUS
 10
535.000000
 20
327.000000
 11
535.000000
 21
336.000000
  0
LINE
  8
1
 62
7
  6
CONTINUOUS
 10
534.500000
 20
326.500000
 11
535.000000
 21
327.000000
  0
CIRCLE
  8
1
 62
7
  6
CONTINUOUS
 10
495.000000
 20
305.000000
 40
22.500000
  0
CIRCLE
  8
1
 62
7
  6
CONTINUOUS
 10
495.000000
 20
305.000000
 40
21.500000
  0
CIRCLE
  8
1
 62
7
  6
CONTINUOUS
 10
495.000000
 20
305.000000
 40
21.000000
  0
CIRCLE
  8
1
 62
7
  6
CONTINUOUS
 10
495.000000
 20
305.000000
 40
20.500000
  0
LINE
  8
1
 62
7
  6
CONTINUOUS
 10
515.621591
 20
296.000000
 11
523.500000
 21
296.000000
  0
LINE
  8
1
 62
7
  6
CONTINUOUS
 10
466.500000
 20
296.000000
 11
474.378409
 21
296.000000
  0
LINE
  8
1
 62
7
  6
CONTINUOUS
 10
474.378409
 20
314.000000
 11
466.500000
 21
314.000000
  0
LINE
  8
1
 62
7
  6
CONTINUOUS
 10
523.500000
 20
314.000000
 11
515.621591
 21
314.000000
  0
LINE
  8
1
 62
7
  6
CONTINUOUS
 10
501.633250
 20
283.500000
 11
534.500000
 21
283.500000
  0
LINE
  8
1
 62
7
  6
CONTINUOUS
 10
455.500000
 20
283.500000
 11
488.366750
 21
283.500000
  0
LINE
  8
1
 62
7
  6
CONTINUOUS
 10
501.633250
 20
326.500000
 11
534.500000
 21
326.500000
  0
LINE
  8
1
 62
7
  6
CONTINUOUS
 10
455.500000
 20
326.500000
 11
488.366750
 21
326.500000
  0
LINE
  8
1
 62
7
  6
CONTINUOUS
 10
507.500000
 20
336.500000
 11
507.500000
 21
326.500000
  0
LINE
  8
1
 62
7
  6
CONTINUOUS
 10
499.500000
 20
327.045408
 11
499.500000
 21
336.500000
  0
LINE
  8
1
 62
7
  6
DASHDOT
 10
285.000000
 20
511.500000
 11
285.000000
 21
421.500000
  0
ARC
  8
1
 62
7
  6
CONTINUOUS
 10
343.000000
 20
475.000000
 40
4.000000
 50
90.000000
 51
-90.000000
  0
LINE
  8
1
 62
7
  6
CONTINUOUS
 10
343.000000
 20
479.000000
 11
350.500000
 21
479.000000
  0
LINE
  8
1
 62
7
  6
CONTINUOUS
 10
350.500000
 20
479.000000
 11
351.000000
 21
479.500000
  0
LINE
  8
1
 62
7
  6
CONTINUOUS
 10
343.000000
 20
471.000000
 11
350.500000
 21
471.000000
  0
LINE
  8
1
 62
7
  6
CONTINUOUS
 10
350.500000
 20
471.000000
 11
351.000000
 21
470.500000
  0
CIRCLE
  8
1
 62
7
  6
CONTINUOUS
 10
329.000000
 20
484.000000
 40
4.000000
  0
LINE
  8
1
 62
7
  6
DASHDOT
 10
324.000000
 20
484.000000
 11
334.000000
 21
484.000000
  0
LINE
  8
1
 62
7
  6
DASHDOT
 10
329.000000
 20
479.000000
 11
329.000000
 21
489.000000
  0
CIRCLE
  8
1
 62
7
  6
CONTINUOUS
 10
329.000000
 20
484.000000
 40
3.500000
  0
LINE
  8
1
 62
7
  6
CONTINUOUS
 10
328.100000
 20
485.500000
 11
327.300000
 21
484.000000
  0
LINE
  8
1
 62
7
  6
CONTINUOUS
 10
327.300000
 20
484.000000
 11
328.100000
 21
482.500000
  0
LINE
  8
1
 62
7
  6
CONTINUOUS
 10
328.100000
 20
482.500000
 11
329.900000
 21
482.500000
  0
LINE
  8
1
 62
7
  6
CONTINUOUS
 10
329.900000
 20
482.500000
 11
330.700000
 21
484.000000
  0
LINE
  8
1
 62
7
  6
CONTINUOUS
 10
330.700000
 20
484.000000
 11
329.900000
 21
485.500000
  0
LINE
  8
1
 62
7
  6
CONTINUOUS
 10
329.900000
 20
485.500000
 11
328.100000
 21
485.500000
  0
CIRCLE
  8
1
 62
7
  6
CONTINUOUS
 10
329.000000
 20
484.000000
 40
3.000000
  0
LINE
  8
1
 62
7
  6
DASHDOT
 10
343.000000
 20
470.000000
 11
343.000000
 21
480.000000
  0
LINE
  8
1
 62
7
  6
CONTINUOUS
 10
351.000000
 20
479.500000
 11
351.000000
 21
505.500000
  0
LINE
  8
1
 62
7
  6
CONTINUOUS
 10
350.000000
 20
506.500000
 11
351.000000
 21
505.500000
  0
LINE
  8
1
 62
7
  6
CONTINUOUS
 10
351.000000
 20
427.500000
 11
351.000000
 21
470.500000
  0
LINE
  8
1
 62
7
  6
CONTINUOUS
 10
350.000000
 20
426.500000
 11
351.000000
 21
427.500000
  0
LINE
  8
1
 62
7
  6
CONTINUOUS
 10
220.000000
 20
426.500000
 11
350.000000
 21
426.500000
  0
LINE
  8
1
 62
7
  6
CONTINUOUS
 10
219.000000
 20
427.500000
 11
220.000000
 21
426.500000
  0
LINE
  8
1
 62
7
  6
CONTINUOUS
 10
350.000000
 20
506.500000
 11
220.000000
 21
506.500000
  0
LINE
  8
1
 62
7
  6
CONTINUOUS
 10
219.000000
 20
505.500000
 11
219.000000
 21
427.500000
  0
LINE
  8
1
 62
7
  6
CONTINUOUS
 10
220.000000
 20
506.500000
 11
219.000000
 21
505.500000
  0
LINE
  8
1
 62
7
  6
CONTINUOUS
 10
350.000000
 20
506.500000
 11
364.000000
 21
506.500000
  0
LINE
  8
1
 62
7
  6
CONTINUOUS
 10
364.000000
 20
506.500000
 11
365.000000
 21
505.500000
  0
LINE
  8
1
 62
7
  6
CONTINUOUS
 10
350.000000
 20
426.500000
 11
364.000000
 21
426.500000
  0
LINE
  8
1
 62
7
  6
CONTINUOUS
 10
364.000000
 20
426.500000
 11
365.000000
 21
427.500000
  0
LINE
  8
1
 62
7
  6
CONTINUOUS
 10
220.000000
 20
426.500000
 11
206.000000
 21
426.500000
  0
LINE
  8
1
 62
7
  6
CONTINUOUS
 10
206.000000
 20
426.500000
 11
205.000000
 21
427.500000
  0
LINE
  8
1
 62
7
  6
CONTINUOUS
 10
220.000000
 20
506.500000
 11
206.000000
 21
506.500000
  0
LINE
  8
1
 62
7
  6
CONTINUOUS
 10
205.000000
 20
427.500000
 11
205.000000
 21
505.500000
  0
LINE
  8
1
 62
7
  6
CONTINUOUS
 10
206.000000
 20
506.500000
 11
205.000000
 21
505.500000
  0
LINE
  8
1
 62
7
  6
CONTINUOUS
 10
205.832272
 20
495.000000
 11
206.332272
 21
495.500000
  0
LINE
  8
1
 62
7
  6
CONTINUOUS
 10
206.332272
 20
495.500000
 11
206.332272
 21
498.500000
  0
LINE
  8
1
 62
7
  6
CONTINUOUS
 10
206.332272
 20
498.500000
 11
219.000000
 21
498.500000
  0
LINE
  8
1
 62
7
  6
CONTINUOUS
 10
207.332272
 20
498.500000
 11
207.332272
 21
498.750000
  0
LINE
  8
1
 62
7
  6
CONTINUOUS
 10
206.332272
 20
498.750000
 11
219.000000
 21
498.750000
  0
LINE
  8
1
 62
7
  6
CONTINUOUS
 10
206.332272
 20
498.750000
 11
206.332272
 21
501.750000
  0
LINE
  8
1
 62
7
  6
CONTINUOUS
 10
206.332272
 20
501.750000
 11
219.000000
 21
501.750000
  0
LINE
  8
1
 62
7
  6
CONTINUOUS
 10
206.332272
 20
501.750000
 11
206.332272
 21
502.750000
  0
LINE
  8
1
 62
7
  6
CONTINUOUS
 10
206.332272
 20
502.750000
 11
219.000000
 21
502.750000
  0
LINE
  8
1
 62
7
  6
CONTINUOUS
 10
206.332272
 20
502.750000
 11
206.332272
 21
504.750000
  0
LINE
  8
1
 62
7
  6
CONTINUOUS
 10
206.332272
 20
504.750000
 11
207.332272
 21
505.750000
  0
LINE
  8
1
 62
7
  6
CONTINUOUS
 10
206.332272
 20
504.750000
 11
219.000000
 21
504.750000
  0
LINE
  8
1
 62
7
  6
CONTINUOUS
 10
207.332272
 20
505.750000
 11
219.250000
 21
505.750000
  0
LINE
  8
1
 62
7
  6
CONTINUOUS
 10
205.832272
 20
495.000000
 11
219.000000
 21
495.000000
  0
LINE
  8
1
 62
7
  6
CONTINUOUS
 10
206.332272
 20
495.500000
 11
219.000000
 21
495.500000
  0
LINE
  8
1
 62
7
  6
CONTINUOUS
 10
205.832272
 20
438.000000
 11
206.332272
 21
437.500000
  0
LINE
  8
1
 62
7
  6
CONTINUOUS
 10
206.332272
 20
437.500000
 11
206.332272
 21
434.500000
  0
LINE
  8
1
 62
7
  6
CONTINUOUS
 10
206.332272
 20
434.500000
 11
219.000000
 21
434.500000
  0
LINE
  8
1
 62
7
  6
CONTINUOUS
 10
207.332272
 20
434.500000
 11
207.332272
 21
434.250000
  0
LINE
  8
1
 62
7
  6
CONTINUOUS
 10
206.332272
 20
434.250000
 11
219.000000
 21
434.250000
  0
LINE
  8
1
 62
7
  6
CONTINUOUS
 10
206.332272
 20
434.250000
 11
206.332272
 21
431.250000
  0
LINE
  8
1
 62
7
  6
CONTINUOUS
 10
206.332272
 20
431.250000
 11
219.000000
 21
431.250000
  0
LINE
  8
1
 62
7
  6
CONTINUOUS
 10
206.332272
 20
431.250000
 11
206.332272
 21
430.250000
  0
LINE
  8
1
 62
7
  6
CONTINUOUS
 10
206.332272
 20
430.250000
 11
219.000000
 21
430.250000
  0
LINE
  8
1
 62
7
  6
CONTINUOUS
 10
206.332272
 20
430.250000
 11
206.332272
 21
428.250000
  0
LINE
  8
1
 62
7
  6
CONTINUOUS
 10
206.332272
 20
428.250000
 11
207.332272
 21
427.250000
  0
LINE
  8
1
 62
7
  6
CONTINUOUS
 10
206.332272
 20
428.250000
 11
219.000000
 21
428.250000
  0
LINE
  8
1
 62
7
  6
CONTINUOUS
 10
207.332272
 20
427.250000
 11
219.250000
 21
427.250000
  0
LINE
  8
1
 62
7
  6
CONTINUOUS
 10
205.832272
 20
438.000000
 11
219.000000
 21
438.000000
  0
LINE
  8
1
 62
7
  6
CONTINUOUS
 10
206.332272
 20
437.500000
 11
219.000000
 21
437.500000
  0
LINE
  8
1
 62
7
  6
DASHDOT
 10
214.832272
 20
424.250000
 11
214.832272
 21
508.750000
  0
CIRCLE
  8
1
 62
7
  6
CONTINUOUS
 10
241.000000
 20
484.000000
 40
4.000000
  0
LINE
  8
1
 62
7
  6
DASHDOT
 10
246.000000
 20
484.000000
 11
236.000000
 21
484.000000
  0
LINE
  8
1
 62
7
  6
DASHDOT
 10
241.000000
 20
479.000000
 11
241.000000
 21
489.000000
  0
CIRCLE
  8
1
 62
7
  6
CONTINUOUS
 10
241.000000
 20
484.000000
 40
3.500000
  0
LINE
  8
1
 62
7
  6
CONTINUOUS
 10
241.900000
 20
485.500000
 11
242.700000
 21
484.000000
  0
LINE
  8
1
 62
7
  6
CONTINUOUS
 10
242.700000
 20
484.000000
 11
241.900000
 21
482.500000
  0
LINE
  8
1
 62
7
  6
CONTINUOUS
 10
241.900000
 20
482.500000
 11
240.100000
 21
482.500000
  0
LINE
  8
1
 62
7
  6
CONTINUOUS
 10
240.100000
 20
482.500000
 11
239.300000
 21
484.000000
  0
LINE
  8
1
 62
7
  6
CONTINUOUS
 10
239.300000
 20
484.000000
 11
240.100000
 21
485.500000
  0
LINE
  8
1
 62
7
  6
CONTINUOUS
 10
240.100000
 20
485.500000
 11
241.900000
 21
485.500000
  0
CIRCLE
  8
1
 62
7
  6
CONTINUOUS
 10
241.000000
 20
484.000000
 40
3.000000
  0
CIRCLE
  8
1
 62
7
  6
CONTINUOUS
 10
241.000000
 20
449.000000
 40
4.000000
  0
LINE
  8
1
 62
7
  6
DASHDOT
 10
246.000000
 20
449.000000
 11
236.000000
 21
449.000000
  0
LINE
  8
1
 62
7
  6
DASHDOT
 10
241.000000
 20
454.000000
 11
241.000000
 21
444.000000
  0
CIRCLE
  8
1
 62
7
  6
CONTINUOUS
 10
241.000000
 20
449.000000
 40
3.500000
  0
LINE
  8
1
 62
7
  6
CONTINUOUS
 10
241.900000
 20
447.500000
 11
242.700000
 21
449.000000
  0
LINE
  8
1
 62
7
  6
CONTINUOUS
 10
242.700000
 20
449.000000
 11
241.900000
 21
450.500000
  0
LINE
  8
1
 62
7
  6
CONTINUOUS
 10
241.900000
 20
450.500000
 11
240.100000
 21
450.500000
  0
LINE
  8
1
 62
7
  6
CONTINUOUS
 10
240.100000
 20
450.500000
 11
239.300000
 21
449.000000
  0
LINE
  8
1
 62
7
  6
CONTINUOUS
 10
239.300000
 20
449.000000
 11
240.100000
 21
447.500000
  0
LINE
  8
1
 62
7
  6
CONTINUOUS
 10
240.100000
 20
447.500000
 11
241.900000
 21
447.500000
  0
CIRCLE
  8
1
 62
7
  6
CONTINUOUS
 10
241.000000
 20
449.000000
 40
3.000000
  0
CIRCLE
  8
1
 62
7
  6
CONTINUOUS
 10
329.000000
 20
449.000000
 40
4.000000
  0
LINE
  8
1
 62
7
  6
DASHDOT
 10
324.000000
 20
449.000000
 11
334.000000
 21
449.000000
  0
LINE
  8
1
 62
7
  6
DASHDOT
 10
329.000000
 20
454.000000
 11
329.000000
 21
444.000000
  0
CIRCLE
  8
1
 62
7
  6
CONTINUOUS
 10
329.000000
 20
449.000000
 40
3.500000
  0
LINE
  8
1
 62
7
  6
CONTINUOUS
 10
328.100000
 20
447.500000
 11
327.300000
 21
449.000000
  0
LINE
  8
1
 62
7
  6
CONTINUOUS
 10
327.300000
 20
449.000000
 11
328.100000
 21
450.500000
  0
LINE
  8
1
 62
7
  6
CONTINUOUS
 10
328.100000
 20
450.500000
 11
329.900000
 21
450.500000
  0
LINE
  8
1
 62
7
  6
CONTINUOUS
 10
329.900000
 20
450.500000
 11
330.700000
 21
449.000000
  0
LINE
  8
1
 62
7
  6
CONTINUOUS
 10
330.700000
 20
449.000000
 11
329.900000
 21
447.500000
  0
LINE
  8
1
 62
7
  6
CONTINUOUS
 10
329.900000
 20
447.500000
 11
328.100000
 21
447.500000
  0
CIRCLE
  8
1
 62
7
  6
CONTINUOUS
 10
329.000000
 20
449.000000
 40
3.000000
  0
CIRCLE
  8
1
 62
7
  6
CONTINUOUS
 10
285.000000
 20
466.500000
 40
1.650000
  0
CIRCLE
  8
1
 62
7
  6
CONTINUOUS
 10
285.000000
 20
466.500000
 40
2.000000
  0
CIRCLE
  8
1
 62
7
  6
CONTINUOUS
 10
260.000000
 20
466.500000
 40
2.000000
  0
CIRCLE
  8
1
 62
7
  6
CONTINUOUS
 10
260.000000
 20
466.500000
 40
1.650000
  0
CIRCLE
  8
1
 62
7
  6
CONTINUOUS
 10
235.000000
 20
466.500000
 40
1.650000
  0
CIRCLE
  8
1
 62
7
  6
CONTINUOUS
 10
235.000000
 20
466.500000
 40
2.000000
  0
CIRCLE
  8
1
 62
7
  6
CONTINUOUS
 10
235.000000
 20
491.500000
 40
1.650000
  0
CIRCLE
  8
1
 62
7
  6
CONTINUOUS
 10
235.000000
 20
491.500000
 40
2.000000
  0
LINE
  8
1
 62
7
  6
DASHDOT
 10
231.000000
 20
491.500000
 11
239.000000
 21
491.500000
  0
LINE
  8
1
 62
7
  6
DASHDOT
 10
235.000000
 20
487.500000
 11
235.000000
 21
495.500000
  0
CIRCLE
  8
1
 62
7
  6
CONTINUOUS
 10
260.000000
 20
491.500000
 40
1.650000
  0
CIRCLE
  8
1
 62
7
  6
CONTINUOUS
 10
260.000000
 20
491.500000
 40
2.000000
  0
LINE
  8
1
 62
7
  6
DASHDOT
 10
256.000000
 20
491.500000
 11
264.000000
 21
491.500000
  0
LINE
  8
1
 62
7
  6
DASHDOT
 10
260.000000
 20
487.500000
 11
260.000000
 21
495.500000
  0
CIRCLE
  8
1
 62
7
  6
CONTINUOUS
 10
310.000000
 20
491.500000
 40
1.650000
  0
CIRCLE
  8
1
 62
7
  6
CONTINUOUS
 10
310.000000
 20
491.500000
 40
2.000000
  0
LINE
  8
1
 62
7
  6
DASHDOT
 10
306.000000
 20
491.500000
 11
314.000000
 21
491.500000
  0
LINE
  8
1
 62
7
  6
DASHDOT
 10
310.000000
 20
487.500000
 11
310.000000
 21
495.500000
  0
CIRCLE
  8
1
 62
7
  6
CONTINUOUS
 10
335.000000
 20
491.500000
 40
1.650000
  0
CIRCLE
  8
1
 62
7
  6
CONTINUOUS
 10
335.000000
 20
491.500000
 40
2.000000
  0
LINE
  8
1
 62
7
  6
DASHDOT
 10
331.000000
 20
491.500000
 11
339.000000
 21
491.500000
  0
LINE
  8
1
 62
7
  6
DASHDOT
 10
335.000000
 20
487.500000
 11
335.000000
 21
495.500000
  0
CIRCLE
  8
1
 62
7
  6
CONTINUOUS
 10
335.000000
 20
441.500000
 40
1.650000
  0
CIRCLE
  8
1
 62
7
  6
CONTINUOUS
 10
335.000000
 20
441.500000
 40
2.000000
  0
LINE
  8
1
 62
7
  6
DASHDOT
 10
331.000000
 20
441.500000
 11
339.000000
 21
441.500000
  0
LINE
  8
1
 62
7
  6
DASHDOT
 10
335.000000
 20
437.500000
 11
335.000000
 21
445.500000
  0
CIRCLE
  8
1
 62
7
  6
CONTINUOUS
 10
310.000000
 20
441.500000
 40
1.650000
  0
CIRCLE
  8
1
 62
7
  6
CONTINUOUS
 10
310.000000
 20
441.500000
 40
2.000000
  0
LINE
  8
1
 62
7
  6
DASHDOT
 10
306.000000
 20
441.500000
 11
314.000000
 21
441.500000
  0
LINE
  8
1
 62
7
  6
DASHDOT
 10
310.000000
 20
437.500000
 11
310.000000
 21
445.500000
  0
CIRCLE
  8
1
 62
7
  6
CONTINUOUS
 10
260.000000
 20
441.500000
 40
1.650000
  0
CIRCLE
  8
1
 62
7
  6
CONTINUOUS
 10
260.000000
 20
441.500000
 40
2.000000
  0
LINE
  8
1
 62
7
  6
DASHDOT
 10
256.000000
 20
441.500000
 11
264.000000
 21
441.500000
  0
LINE
  8
1
 62
7
  6
DASHDOT
 10
260.000000
 20
437.500000
 11
260.000000
 21
445.500000
  0
CIRCLE
  8
1
 62
7
  6
CONTINUOUS
 10
235.000000
 20
441.500000
 40
1.650000
  0
CIRCLE
  8
1
 62
7
  6
CONTINUOUS
 10
235.000000
 20
441.500000
 40
2.000000
  0
LINE
  8
1
 62
7
  6
DASHDOT
 10
231.000000
 20
441.500000
 11
239.000000
 21
441.500000
  0
LINE
  8
1
 62
7
  6
DASHDOT
 10
235.000000
 20
437.500000
 11
235.000000
 21
445.500000
  0
LINE
  8
1
 62
7
  6
DASHDOT
 10
235.000000
 20
462.500000
 11
235.000000
 21
470.500000
  0
LINE
  8
1
 62
7
  6
DASHDOT
 10
260.000000
 20
462.500000
 11
260.000000
 21
470.500000
  0
CIRCLE
  8
1
 62
7
  6
CONTINUOUS
 10
310.000000
 20
466.500000
 40
2.000000
  0
CIRCLE
  8
1
 62
7
  6
CONTINUOUS
 10
310.000000
 20
466.500000
 40
1.650000
  0
CIRCLE
  8
1
 62
7
  6
CONTINUOUS
 10
335.000000
 20
466.500000
 40
1.650000
  0
CIRCLE
  8
1
 62
7
  6
CONTINUOUS
 10
335.000000
 20
466.500000
 40
2.000000
  0
LINE
  8
1
 62
7
  6
DASHDOT
 10
335.000000
 20
462.500000
 11
335.000000
 21
470.500000
  0
LINE
  8
1
 62
7
  6
DASHDOT
 10
310.000000
 20
462.500000
 11
310.000000
 21
470.500000
  0
CIRCLE
  8
1
 62
7
  6
CONTINUOUS
 10
285.000000
 20
441.500000
 40
2.000000
  0
CIRCLE
  8
1
 62
7
  6
CONTINUOUS
 10
285.000000
 20
441.500000
 40
1.650000
  0
LINE
  8
1
 62
7
  6
DASHDOT
 10
289.000000
 20
441.500000
 11
281.000000
 21
441.500000
  0
CIRCLE
  8
1
 62
7
  6
CONTINUOUS
 10
285.000000
 20
491.500000
 40
2.000000
  0
CIRCLE
  8
1
 62
7
  6
CONTINUOUS
 10
285.000000
 20
491.500000
 40
1.650000
  0
LINE
  8
1
 62
7
  6
DASHDOT
 10
289.000000
 20
491.500000
 11
281.000000
 21
491.500000
  0
LINE
  8
1
 62
7
  6
CONTINUOUS
 10
364.167728
 20
495.000000
 11
363.667728
 21
495.500000
  0
LINE
  8
1
 62
7
  6
CONTINUOUS
 10
363.667728
 20
495.500000
 11
363.667728
 21
498.500000
  0
LINE
  8
1
 62
7
  6
CONTINUOUS
 10
363.667728
 20
498.500000
 11
351.000000
 21
498.500000
  0
LINE
  8
1
 62
7
  6
CONTINUOUS
 10
362.667728
 20
498.500000
 11
362.667728
 21
498.750000
  0
LINE
  8
1
 62
7
  6
CONTINUOUS
 10
363.667728
 20
498.750000
 11
351.000000
 21
498.750000
  0
LINE
  8
1
 62
7
  6
CONTINUOUS
 10
363.667728
 20
498.750000
 11
363.667728
 21
501.750000
  0
LINE
  8
1
 62
7
  6
CONTINUOUS
 10
363.667728
 20
501.750000
 11
351.000000
 21
501.750000
  0
LINE
  8
1
 62
7
  6
CONTINUOUS
 10
363.667728
 20
501.750000
 11
363.667728
 21
502.750000
  0
LINE
  8
1
 62
7
  6
CONTINUOUS
 10
363.667728
 20
502.750000
 11
351.000000
 21
502.750000
  0
LINE
  8
1
 62
7
  6
CONTINUOUS
 10
363.667728
 20
502.750000
 11
363.667728
 21
504.750000
  0
LINE
  8
1
 62
7
  6
CONTINUOUS
 10
363.667728
 20
504.750000
 11
362.667728
 21
505.750000
  0
LINE
  8
1
 62
7
  6
CONTINUOUS
 10
363.667728
 20
504.750000
 11
351.000000
 21
504.750000
  0
LINE
  8
1
 62
7
  6
CONTINUOUS
 10
362.667728
 20
505.750000
 11
350.750000
 21
505.750000
  0
LINE
  8
1
 62
7
  6
CONTINUOUS
 10
364.167728
 20
495.000000
 11
351.000000
 21
495.000000
  0
LINE
  8
1
 62
7
  6
CONTINUOUS
 10
363.667728
 20
495.500000
 11
351.000000
 21
495.500000
  0
LINE
  8
1
 62
7
  6
DASHDOT
 10
355.167728
 20
424.250000
 11
355.167728
 21
508.750000
  0
LINE
  8
1
 62
7
  6
CONTINUOUS
 10
364.167728
 20
438.000000
 11
363.667728
 21
437.500000
  0
LINE
  8
1
 62
7
  6
CONTINUOUS
 10
363.667728
 20
437.500000
 11
363.667728
 21
434.500000
  0
LINE
  8
1
 62
7
  6
CONTINUOUS
 10
363.667728
 20
434.500000
 11
351.000000
 21
434.500000
  0
LINE
  8
1
 62
7
  6
CONTINUOUS
 10
362.667728
 20
434.500000
 11
362.667728
 21
434.250000
  0
LINE
  8
1
 62
7
  6
CONTINUOUS
 10
363.667728
 20
434.250000
 11
351.000000
 21
434.250000
  0
LINE
  8
1
 62
7
  6
CONTINUOUS
 10
363.667728
 20
434.250000
 11
363.667728
 21
431.250000
  0
LINE
  8
1
 62
7
  6
CONTINUOUS
 10
363.667728
 20
431.250000
 11
351.000000
 21
431.250000
  0
LINE
  8
1
 62
7
  6
CONTINUOUS
 10
363.667728
 20
431.250000
 11
363.667728
 21
430.250000
  0
LINE
  8
1
 62
7
  6
CONTINUOUS
 10
363.667728
 20
430.250000
 11
351.000000
 21
430.250000
  0
LINE
  8
1
 62
7
  6
CONTINUOUS
 10
363.667728
 20
430.250000
 11
363.667728
 21
428.250000
  0
LINE
  8
1
 62
7
  6
CONTINUOUS
 10
363.667728
 20
428.250000
 11
362.667728
 21
427.250000
  0
LINE
  8
1
 62
7
  6
CONTINUOUS
 10
363.667728
 20
428.250000
 11
351.000000
 21
428.250000
  0
LINE
  8
1
 62
7
  6
CONTINUOUS
 10
362.667728
 20
427.250000
 11
350.750000
 21
427.250000
  0
LINE
  8
1
 62
7
  6
CONTINUOUS
 10
364.167728
 20
438.000000
 11
351.000000
 21
438.000000
  0
LINE
  8
1
 62
7
  6
CONTINUOUS
 10
363.667728
 20
437.500000
 11
351.000000
 21
437.500000
  0
CIRCLE
  8
1
 62
7
  6
CONTINUOUS
 10
355.167728
 20
475.000000
 40
6.000000
  0
LINE
  8
1
 62
7
  6
DASHDOT
 10
362.167728
 20
475.000000
 11
338.000000
 21
475.000000
  0
CIRCLE
  8
1
 62
7
  6
CONTINUOUS
 10
355.167728
 20
475.000000
 40
5.000000
  0
LINE
  8
1
 62
7
  6
CONTINUOUS
 10
353.767728
 20
477.500000
 11
352.267728
 21
475.000000
  0
LINE
  8
1
 62
7
  6
CONTINUOUS
 10
352.267728
 20
475.000000
 11
353.767728
 21
472.500000
  0
LINE
  8
1
 62
7
  6
CONTINUOUS
 10
353.767728
 20
472.500000
 11
356.567728
 21
472.500000
  0
LINE
  8
1
 62
7
  6
CONTINUOUS
 10
356.567728
 20
472.500000
 11
358.067728
 21
475.000000
  0
LINE
  8
1
 62
7
  6
CONTINUOUS
 10
358.067728
 20
475.000000
 11
356.567728
 21
477.500000
  0
LINE
  8
1
 62
7
  6
CONTINUOUS
 10
356.567728
 20
477.500000
 11
353.767728
 21
477.500000
  0
CIRCLE
  8
1
 62
7
  6
CONTINUOUS
 10
355.167728
 20
475.000000
 40
4.300000
  0
LINE
  8
1
 62
7
  6
DASHDOT
 10
397.832272
 20
466.500000
 11
200.000000
 21
466.500000
  0
LINE
  8
1
 62
7
  6
CONTINUOUS
 10
391.332272
 20
445.000000
 11
390.332272
 21
444.000000
  0
LINE
  8
1
 62
7
  6
CONTINUOUS
 10
379.332272
 20
444.000000
 11
390.332272
 21
444.000000
  0
LINE
  8
1
 62
7
  6
CONTINUOUS
 10
378.332272
 20
445.000000
 11
379.332272
 21
444.000000
  0
LINE
  8
1
 62
7
  6
CONTINUOUS
 10
392.332272
 20
445.500000
 11
391.332272
 21
445.500000
  0
LINE
  8
1
 62
7
  6
CONTINUOUS
 10
392.332272
 20
445.500000
 11
392.832272
 21
446.000000
  0
LINE
  8
1
 62
7
  6
CONTINUOUS
 10
377.332272
 20
445.500000
 11
378.332272
 21
445.500000
  0
LINE
  8
1
 62
7
  6
CONTINUOUS
 10
376.832272
 20
446.000000
 11
377.332272
 21
445.500000
  0
LINE
  8
1
 62
7
  6
CONTINUOUS
 10
392.332272
 20
487.500000
 11
391.332272
 21
487.500000
  0
LINE
  8
1
 62
7
  6
CONTINUOUS
 10
392.832272
 20
446.000000
 11
392.832272
 21
487.000000
  0
LINE
  8
1
 62
7
  6
CONTINUOUS
 10
392.332272
 20
487.500000
 11
392.832272
 21
487.000000
  0
LINE
  8
1
 62
7
  6
CONTINUOUS
 10
377.332272
 20
487.500000
 11
378.332272
 21
487.500000
  0
LINE
  8
1
 62
7
  6
CONTINUOUS
 10
376.832272
 20
487.000000
 11
377.332272
 21
487.500000
  0
LINE
  8
1
 62
7
  6
CONTINUOUS
 10
379.332272
 20
489.000000
 11
378.332272
 21
488.000000
  0
LINE
  8
1
 62
7
  6
CONTINUOUS
 10
390.332272
 20
489.000000
 11
379.332272
 21
489.000000
  0
LINE
  8
1
 62
7
  6
CONTINUOUS
 10
391.332272
 20
488.000000
 11
390.332272
 21
489.000000
  0
LINE
  8
1
 62
7
  6
CONTINUOUS
 10
380.332272
 20
445.000000
 11
390.332272
 21
445.000000
  0
LINE
  8
1
 62
7
  6
CONTINUOUS
 10
390.332272
 20
446.000000
 11
381.332272
 21
446.000000
  0
LINE
  8
1
 62
7
  6
CONTINUOUS
 10
382.332272
 20
447.000000
 11
390.332272
 21
447.000000
  0
LINE
  8
1
 62
7
  6
CONTINUOUS
 10
390.332272
 20
448.000000
 11
383.332272
 21
448.000000
  0
LINE
  8
1
 62
7
  6
CONTINUOUS
 10
384.332272
 20
449.000000
 11
390.332272
 21
449.000000
  0
LINE
  8
1
 62
7
  6
CONTINUOUS
 10
390.332272
 20
450.000000
 11
385.332272
 21
450.000000
  0
LINE
  8
1
 62
7
  6
CONTINUOUS
 10
376.832272
 20
487.000000
 11
376.832272
 21
446.000000
  0
LINE
  8
1
 62
7
  6
CONTINUOUS
 10
378.332272
 20
445.000000
 11
378.332272
 21
488.000000
  0
LINE
  8
1
 62
7
  6
CONTINUOUS
 10
391.332272
 20
488.000000
 11
391.332272
 21
445.000000
  0
LINE
  8
1
 62
7
  6
CONTINUOUS
 10
377.332272
 20
445.500000
 11
377.332272
 21
487.500000
  0
LINE
  8
1
 62
7
  6
CONTINUOUS
 10
379.332272
 20
444.000000
 11
379.332272
 21
489.000000
  0
LINE
  8
1
 62
7
  6
CONTINUOUS
 10
390.332272
 20
444.000000
 11
390.332272
 21
489.000000
  0
LINE
  8
1
 62
7
  6
CONTINUOUS
 10
392.332272
 20
445.500000
 11
392.332272
 21
487.500000
  0
LINE
  8
1
 62
7
  6
CONTINUOUS
 10
389.332272
 20
488.000000
 11
379.332272
 21
488.000000
  0
LINE
  8
1
 62
7
  6
CONTINUOUS
 10
379.332272
 20
487.000000
 11
388.332272
 21
487.000000
  0
LINE
  8
1
 62
7
  6
CONTINUOUS
 10
387.332272
 20
486.000000
 11
379.332272
 21
486.000000
  0
LINE
  8
1
 62
7
  6
CONTINUOUS
 10
379.332272
 20
485.000000
 11
386.332272
 21
485.000000
  0
LINE
  8
1
 62
7
  6
CONTINUOUS
 10
385.332272
 20
484.000000
 11
379.332272
 21
484.000000
  0
LINE
  8
1
 62
7
  6
CONTINUOUS
 10
379.332272
 20
483.000000
 11
384.332272
 21
483.000000
  0
LINE
  8
1
 62
7
  6
CONTINUOUS
 10
376.832272
 20
470.500000
 11
364.167728
 21
470.500000
  0
LINE
  8
1
 62
7
  6
CONTINUOUS
 10
376.832272
 20
462.500000
 11
364.167728
 21
462.500000
  0
LINE
  8
1
 62
7
  6
CONTINUOUS
 10
365.000000
 20
470.500000
 11
365.000000
 21
505.500000
  0
LINE
  8
1
 62
7
  6
CONTINUOUS
 10
365.000000
 20
427.500000
 11
365.000000
 21
462.500000
  0
ARC
  8
1
 62
7
  6
CONTINUOUS
 10
364.205297
 20
470.091880
 40
0.409846
 50
95.259439
 51
165.352471
  0
ARC
  8
1
 62
7
  6
CONTINUOUS
 10
366.490360
 20
468.767459
 40
3.038136
 50
151.962815
 51
169.359726
  0
ARC
  8
1
 62
7
  6
CONTINUOUS
 10
372.737007
 20
467.217022
 40
9.470899
 50
167.118461
 51
175.071242
  0
ARC
  8
1
 62
7
  6
CONTINUOUS
 10
378.934144
 20
466.534500
 40
15.704454
 50
174.532883
 51
-179.874129
  0
ARC
  8
1
 62
7
  6
CONTINUOUS
 10
379.524647
 20
466.493044
 40
16.294920
 50
179.975540
 51
-174.634294
  0
ARC
  8
1
 62
7
  6
CONTINUOUS
 10
373.946168
 20
465.972438
 40
10.692203
 50
-174.616433
 51
-167.573269
  0
ARC
  8
1
 62
7
  6
CONTINUOUS
 10
367.301072
 20
464.517064
 40
3.889615
 50
-167.445311
 51
-153.877230
  0
ARC
  8
1
 62
7
  6
CONTINUOUS
 10
364.330559
 20
463.055793
 40
0.579154
 50
-154.282922
 51
-106.328989
  0
LINE
  8
1
 62
7
  6
DASHDOT
 10
285.000000
 20
98.500000
 11
285.000000
 21
188.500000
  0
CIRCLE
  8
1
 62
7
  6
CONTINUOUS
 10
329.000000
 20
126.000000
 40
4.000000
  0
LINE
  8
1
 62
7
  6
DASHDOT
 10
324.000000
 20
126.000000
 11
334.000000
 21
126.000000
  0
LINE
  8
1
 62
7
  6
DASHDOT
 10
329.000000
 20
131.000000
 11
329.000000
 21
121.000000
  0
CIRCLE
  8
1
 62
7
  6
CONTINUOUS
 10
329.000000
 20
126.000000
 40
3.500000
  0
LINE
  8
1
 62
7
  6
CONTINUOUS
 10
328.100000
 20
124.500000
 11
327.300000
 21
126.000000
  0
LINE
  8
1
 62
7
  6
CONTINUOUS
 10
327.300000
 20
126.000000
 11
328.100000
 21
127.500000
  0
LINE
  8
1
 62
7
  6
CONTINUOUS
 10
328.100000
 20
127.500000
 11
329.900000
 21
127.500000
  0
LINE
  8
1
 62
7
  6
CONTINUOUS
 10
329.900000
 20
127.500000
 11
330.700000
 21
126.000000
  0
LINE
  8
1
 62
7
  6
CONTINUOUS
 10
330.700000
 20
126.000000
 11
329.900000
 21
124.500000
  0
LINE
  8
1
 62
7
  6
CONTINUOUS
 10
329.900000
 20
124.500000
 11
328.100000
 21
124.500000
  0
CIRCLE
  8
1
 62
7
  6
CONTINUOUS
 10
329.000000
 20
126.000000
 40
3.000000
  0
LINE
  8
1
 62
7
  6
CONTINUOUS
 10
364.000000
 20
103.500000
 11
365.000000
 21
104.500000
  0
LINE
  8
1
 62
7
  6
CONTINUOUS
 10
364.000000
 20
183.500000
 11
365.000000
 21
182.500000
  0
LINE
  8
1
 62
7
  6
CONTINUOUS
 10
206.000000
 20
183.500000
 11
205.000000
 21
182.500000
  0
LINE
  8
1
 62
7
  6
CONTINUOUS
 10
205.000000
 20
182.500000
 11
205.000000
 21
104.500000
  0
LINE
  8
1
 62
7
  6
CONTINUOUS
 10
206.000000
 20
103.500000
 11
205.000000
 21
104.500000
  0
CIRCLE
  8
1
 62
7
  6
CONTINUOUS
 10
241.000000
 20
126.000000
 40
4.000000
  0
LINE
  8
1
 62
7
  6
DASHDOT
 10
246.000000
 20
126.000000
 11
236.000000
 21
126.000000
  0
LINE
  8
1
 62
7
  6
DASHDOT
 10
241.000000
 20
131.000000
 11
241.000000
 21
121.000000
  0
CIRCLE
  8
1
 62
7
  6
CONTINUOUS
 10
241.000000
 20
126.000000
 40
3.500000
  0
LINE
  8
1
 62
7
  6
CONTINUOUS
 10
241.900000
 20
124.500000
 11
242.700000
 21
126.000000
  0
LINE
  8
1
 62
7
  6
CONTINUOUS
 10
242.700000
 20
126.000000
 11
241.900000
 21
127.500000
  0
LINE
  8
1
 62
7
  6
CONTINUOUS
 10
241.900000
 20
127.500000
 11
240.100000
 21
127.500000
  0
LINE
  8
1
 62
7
  6
CONTINUOUS
 10
240.100000
 20
127.500000
 11
239.300000
 21
126.000000
  0
LINE
  8
1
 62
7
  6
CONTINUOUS
 10
239.300000
 20
126.000000
 11
240.100000
 21
124.500000
  0
LINE
  8
1
 62
7
  6
CONTINUOUS
 10
240.100000
 20
124.500000
 11
241.900000
 21
124.500000
  0
CIRCLE
  8
1
 62
7
  6
CONTINUOUS
 10
241.000000
 20
126.000000
 40
3.000000
  0
CIRCLE
  8
1
 62
7
  6
CONTINUOUS
 10
241.000000
 20
161.000000
 40
4.000000
  0
LINE
  8
1
 62
7
  6
DASHDOT
 10
246.000000
 20
161.000000
 11
236.000000
 21
161.000000
  0
LINE
  8
1
 62
7
  6
DASHDOT
 10
241.000000
 20
156.000000
 11
241.000000
 21
166.000000
  0
CIRCLE
  8
1
 62
7
  6
CONTINUOUS
 10
241.000000
 20
161.000000
 40
3.500000
  0
LINE
  8
1
 62
7
  6
CONTINUOUS
 10
241.900000
 20
162.500000
 11
242.700000
 21
161.000000
  0
LINE
  8
1
 62
7
  6
CONTINUOUS
 10
242.700000
 20
161.000000
 11
241.900000
 21
159.500000
  0
LINE
  8
1
 62
7
  6
CONTINUOUS
 10
241.900000
 20
159.500000
 11
240.100000
 21
159.500000
  0
LINE
  8
1
 62
7
  6
CONTINUOUS
 10
240.100000
 20
159.500000
 11
239.300000
 21
161.000000
  0
LINE
  8
1
 62
7
  6
CONTINUOUS
 10
239.300000
 20
161.000000
 11
240.100000
 21
162.500000
  0
LINE
  8
1
 62
7
  6
CONTINUOUS
 10
240.100000
 20
162.500000
 11
241.900000
 21
162.500000
  0
CIRCLE
  8
1
 62
7
  6
CONTINUOUS
 10
241.000000
 20
161.000000
 40
3.000000
  0
CIRCLE
  8
1
 62
7
  6
CONTINUOUS
 10
329.000000
 20
161.000000
 40
4.000000
  0
LINE
  8
1
 62
7
  6
DASHDOT
 10
324.000000
 20
161.000000
 11
334.000000
 21
161.000000
  0
LINE
  8
1
 62
7
  6
DASHDOT
 10
329.000000
 20
156.000000
 11
329.000000
 21
166.000000
  0
CIRCLE
  8
1
 62
7
  6
CONTINUOUS
 10
329.000000
 20
161.000000
 40
3.500000
  0
LINE
  8
1
 62
7
  6
CONTINUOUS
 10
328.100000
 20
162.500000
 11
327.300000
 21
161.000000
  0
LINE
  8
1
 62
7
  6
CONTINUOUS
 10
327.300000
 20
161.000000
 11
328.100000
 21
159.500000
  0
LINE
  8
1
 62
7
  6
CONTINUOUS
 10
328.100000
 20
159.500000
 11
329.900000
 21
159.500000
  0
LINE
  8
1
 62
7
  6
CONTINUOUS
 10
329.900000
 20
159.500000
 11
330.700000
 21
161.000000
  0
LINE
  8
1
 62
7
  6
CONTINUOUS
 10
330.700000
 20
161.000000
 11
329.900000
 21
162.500000
  0
LINE
  8
1
 62
7
  6
CONTINUOUS
 10
329.900000
 20
162.500000
 11
328.100000
 21
162.500000
  0
CIRCLE
  8
1
 62
7
  6
CONTINUOUS
 10
329.000000
 20
161.000000
 40
3.000000
  0
LINE
  8
1
 62
7
  6
DASHDOT
 10
397.832272
 20
143.500000
 11
200.000000
 21
143.500000
  0
LINE
  8
1
 62
7
  6
CONTINUOUS
 10
206.000000
 20
183.500000
 11
364.000000
 21
183.500000
  0
LINE
  8
1
 62
7
  6
CONTINUOUS
 10
206.000000
 20
103.500000
 11
364.000000
 21
103.500000
  0
LINE
  8
1
 62
7
  6
CONTINUOUS
 10
365.000000
 20
182.500000
 11
365.000000
 21
104.500000
  0
LINE
  8
1
 62
7
  6
CONTINUOUS
 10
376.832272
 20
139.500000
 11
365.000000
 21
139.500000
  0
LINE
  8
1
 62
7
  6
CONTINUOUS
 10
376.832272
 20
147.500000
 11
365.000000
 21
147.500000
  0
LINE
  8
1
 62
7
  6
CONTINUOUS
 10
391.332272
 20
122.000000
 11
390.332272
 21
121.000000
  0
LINE
  8
1
 62
7
  6
CONTINUOUS
 10
379.332272
 20
121.000000
 11
390.332272
 21
121.000000
  0
LINE
  8
1
 62
7
  6
CONTINUOUS
 10
378.332272
 20
122.000000
 11
379.332272
 21
121.000000
  0
LINE
  8
1
 62
7
  6
CONTINUOUS
 10
392.332272
 20
122.500000
 11
391.332272
 21
122.500000
  0
LINE
  8
1
 62
7
  6
CONTINUOUS
 10
392.332272
 20
122.500000
 11
392.832272
 21
123.000000
  0
LINE
  8
1
 62
7
  6
CONTINUOUS
 10
377.332272
 20
122.500000
 11
378.332272
 21
122.500000
  0
LINE
  8
1
 62
7
  6
CONTINUOUS
 10
376.832272
 20
123.000000
 11
377.332272
 21
122.500000
  0
LINE
  8
1
 62
7
  6
CONTINUOUS
 10
392.332272
 20
164.500000
 11
391.332272
 21
164.500000
  0
LINE
  8
1
 62
7
  6
CONTINUOUS
 10
392.832272
 20
123.000000
 11
392.832272
 21
164.000000
  0
LINE
  8
1
 62
7
  6
CONTINUOUS
 10
392.332272
 20
164.500000
 11
392.832272
 21
164.000000
  0
LINE
  8
1
 62
7
  6
CONTINUOUS
 10
377.332272
 20
164.500000
 11
378.332272
 21
164.500000
  0
LINE
  8
1
 62
7
  6
CONTINUOUS
 10
376.832272
 20
164.000000
 11
377.332272
 21
164.500000
  0
LINE
  8
1
 62
7
  6
CONTINUOUS
 10
379.332272
 20
166.000000
 11
378.332272
 21
165.000000
  0
LINE
  8
1
 62
7
  6
CONTINUOUS
 10
390.332272
 20
166.000000
 11
379.332272
 21
166.000000
  0
LINE
  8
1
 62
7
  6
CONTINUOUS
 10
391.332272
 20
165.000000
 11
390.332272
 21
166.000000
  0
LINE
  8
1
 62
7
  6
CONTINUOUS
 10
380.332272
 20
122.000000
 11
390.332272
 21
122.000000
  0
LINE
  8
1
 62
7
  6
CONTINUOUS
 10
390.332272
 20
123.000000
 11
381.332272
 21
123.000000
  0
LINE
  8
1
 62
7
  6
CONTINUOUS
 10
382.332272
 20
124.000000
 11
390.332272
 21
124.000000
  0
LINE
  8
1
 62
7
  6
CONTINUOUS
 10
390.332272
 20
125.000000
 11
383.332272
 21
125.000000
  0
LINE
  8
1
 62
7
  6
CONTINUOUS
 10
384.332272
 20
126.000000
 11
390.332272
 21
126.000000
  0
LINE
  8
1
 62
7
  6
CONTINUOUS
 10
390.332272
 20
127.000000
 11
385.332272
 21
127.000000
  0
LINE
  8
1
 62
7
  6
CONTINUOUS
 10
376.832272
 20
164.000000
 11
376.832272
 21
123.000000
  0
LINE
  8
1
 62
7
  6
CONTINUOUS
 10
378.332272
 20
122.000000
 11
378.332272
 21
165.000000
  0
LINE
  8
1
 62
7
  6
CONTINUOUS
 10
391.332272
 20
165.000000
 11
391.332272
 21
122.000000
  0
LINE
  8
1
 62
7
  6
CONTINUOUS
 10
377.332272
 20
122.500000
 11
377.332272
 21
164.500000
  0
LINE
  8
1
 62
7
  6
CONTINUOUS
 10
379.332272
 20
121.000000
 11
379.332272
 21
166.000000
  0
LINE
  8
1
 62
7
  6
CONTINUOUS
 10
390.332272
 20
121.000000
 11
390.332272
 21
166.000000
  0
LINE
  8
1
 62
7
  6
CONTINUOUS
 10
392.332272
 20
122.500000
 11
392.332272
 21
164.500000
  0
LINE
  8
1
 62
7
  6
CONTINUOUS
 10
389.332272
 20
165.000000
 11
379.332272
 21
165.000000
  0
LINE
  8
1
 62
7
  6
CONTINUOUS
 10
379.332272
 20
164.000000
 11
388.332272
 21
164.000000
  0
LINE
  8
1
 62
7
  6
CONTINUOUS
 10
387.332272
 20
163.000000
 11
379.332272
 21
163.000000
  0
LINE
  8
1
 62
7
  6
CONTINUOUS
 10
379.332272
 20
162.000000
 11
386.332272
 21
162.000000
  0
LINE
  8
1
 62
7
  6
CONTINUOUS
 10
385.332272
 20
161.000000
 11
379.332272
 21
161.000000
  0
LINE
  8
1
 62
7
  6
CONTINUOUS
 10
379.332272
 20
160.000000
 11
384.332272
 21
160.000000
  0
CIRCLE
  8
1
 62
7
  6
CONTINUOUS
 10
215.000000
 20
143.500000
 40
3.250000
  0
CIRCLE
  8
1
 62
7
  6
CONTINUOUS
 10
215.000000
 20
173.500000
 40
2.500000
  0
CIRCLE
  8
1
 62
7
  6
CONTINUOUS
 10
215.000000
 20
173.500000
 40
3.000000
  0
LINE
  8
1
 62
7
  6
DASHDOT
 10
210.000000
 20
173.500000
 11
220.000000
 21
173.500000
  0
LINE
  8
1
 62
7
  6
DASHDOT
 10
215.000000
 20
168.500000
 11
215.000000
 21
178.500000
  0
LINE
  8
1
 62
7
  6
DASHDOT
 10
215.000000
 20
138.250000
 11
215.000000
 21
148.750000
  0
CIRCLE
  8
1
 62
7
  6
CONTINUOUS
 10
215.000000
 20
113.500000
 40
2.500000
  0
CIRCLE
  8
1
 62
7
  6
CONTINUOUS
 10
215.000000
 20
113.500000
 40
3.000000
  0
LINE
  8
1
 62
7
  6
DASHDOT
 10
210.000000
 20
113.500000
 11
220.000000
 21
113.500000
  0
LINE
  8
1
 62
7
  6
DASHDOT
 10
215.000000
 20
118.500000
 11
215.000000
 21
108.500000
  0
CIRCLE
  8
1
 62
7
  6
CONTINUOUS
 10
355.000000
 20
143.500000
 40
3.250000
  0
CIRCLE
  8
1
 62
7
  6
CONTINUOUS
 10
355.000000
 20
173.500000
 40
2.500000
  0
CIRCLE
  8
1
 62
7
  6
CONTINUOUS
 10
355.000000
 20
173.500000
 40
3.000000
  0
LINE
  8
1
 62
7
  6
DASHDOT
 10
360.000000
 20
173.500000
 11
350.000000
 21
173.500000
  0
LINE
  8
1
 62
7
  6
DASHDOT
 10
355.000000
 20
168.500000
 11
355.000000
 21
178.500000
  0
LINE
  8
1
 62
7
  6
DASHDOT
 10
355.000000
 20
138.250000
 11
355.000000
 21
148.750000
  0
CIRCLE
  8
1
 62
7
  6
CONTINUOUS
 10
355.000000
 20
113.500000
 40
2.500000
  0
CIRCLE
  8
1
 62
7
  6
CONTINUOUS
 10
355.000000
 20
113.500000
 40
3.000000
  0
LINE
  8
1
 62
7
  6
DASHDOT
 10
360.000000
 20
113.500000
 11
350.000000
 21
113.500000
  0
LINE
  8
1
 62
7
  6
DASHDOT
 10
355.000000
 20
118.500000
 11
355.000000
 21
108.500000
  0
CIRCLE
  8
1
 62
7
  6
CONTINUOUS
 10
285.000000
 20
173.500000
 40
3.250000
  0
LINE
  8
1
 62
7
  6
DASHDOT
 10
290.250000
 20
173.500000
 11
279.750000
 21
173.500000
  0
CIRCLE
  8
1
 62
7
  6
CONTINUOUS
 10
285.000000
 20
113.500000
 40
3.250000
  0
LINE
  8
1
 62
7
  6
DASHDOT
 10
290.250000
 20
113.500000
 11
279.750000
 21
113.500000
  0
CIRCLE
  8
1
 62
7
  6
CONTINUOUS
 10
260.000000
 20
168.500000
 40
2.250000
  0
LINE
  8
1
 62
7
  6
DASHDOT
 10
255.750000
 20
168.500000
 11
264.250000
 21
168.500000
  0
LINE
  8
1
 62
7
  6
DASHDOT
 10
260.000000
 20
164.250000
 11
260.000000
 21
172.750000
  0
CIRCLE
  8
1
 62
7
  6
CONTINUOUS
 10
260.000000
 20
118.500000
 40
2.250000
  0
LINE
  8
1
 62
7
  6
DASHDOT
 10
260.000000
 20
114.250000
 11
260.000000
 21
122.750000
  0
LINE
  8
1
 62
7
  6
DASHDOT
 10
264.250000
 20
118.500000
 11
255.750000
 21
118.500000
  0
CIRCLE
  8
1
 62
7
  6
CONTINUOUS
 10
310.000000
 20
118.500000
 40
2.250000
  0
LINE
  8
1
 62
7
  6
DASHDOT
 10
314.250000
 20
118.500000
 11
305.750000
 21
118.500000
  0
LINE
  8
1
 62
7
  6
DASHDOT
 10
310.000000
 20
122.750000
 11
310.000000
 21
114.250000
  0
CIRCLE
  8
1
 62
7
  6
CONTINUOUS
 10
310.000000
 20
168.500000
 40
2.250000
  0
LINE
  8
1
 62
7
  6
DASHDOT
 10
310.000000
 20
172.750000
 11
310.000000
 21
164.250000
  0
LINE
  8
1
 62
7
  6
DASHDOT
 10
305.750000
 20
168.500000
 11
314.250000
 21
168.500000
  0
LINE
  8
1
 62
7
  6
DIVIDE
 10
400.507272
 20
294.500000
 11
399.507272
 21
293.500000
  0
LINE
  8
1
 62
7
  6
DIVIDE
 10
401.507272
 20
295.000000
 11
400.507272
 21
295.000000
  0
LINE
  8
1
 62
7
  6
DIVIDE
 10
401.507272
 20
295.000000
 11
402.007272
 21
295.500000
  0
LINE
  8
1
 62
7
  6
DIVIDE
 10
399.507272
 20
293.500000
 11
394.057272
 21
293.500000
  0
LINE
  8
1
 62
7
  6
DIVIDE
 10
400.507272
 20
337.500000
 11
399.507272
 21
338.500000
  0
LINE
  8
1
 62
7
  6
DIVIDE
 10
401.507272
 20
337.000000
 11
400.507272
 21
337.000000
  0
LINE
  8
1
 62
7
  6
DIVIDE
 10
401.507272
 20
337.000000
 11
402.007272
 21
336.500000
  0
LINE
  8
1
 62
7
  6
DIVIDE
 10
399.507272
 20
338.500000
 11
388.507272
 21
338.500000
  0
LINE
  8
1
 62
7
  6
DIVIDE
 10
387.507272
 20
337.500000
 11
388.507272
 21
338.500000
  0
LINE
  8
1
 62
7
  6
DIVIDE
 10
386.507272
 20
337.000000
 11
387.507272
 21
337.000000
  0
LINE
  8
1
 62
7
  6
DIVIDE
 10
386.507272
 20
337.000000
 11
386.007272
 21
336.500000
  0
LINE
  8
1
 62
7
  6
DIVIDE
 10
388.507272
 20
338.500000
 11
388.507272
 21
328.900000
  0
LINE
  8
1
 62
7
  6
DIVIDE
 10
386.507272
 20
337.000000
 11
386.507272
 21
329.000000
  0
LINE
  8
1
 62
7
  6
DIVIDE
 10
386.007272
 20
336.500000
 11
386.007272
 21
328.600000
  0
LINE
  8
1
 62
7
  6
DIVIDE
 10
387.507272
 20
337.500000
 11
387.507272
 21
328.600000
  0
LINE
  8
1
 62
7
  6
DIVIDE
 10
402.007272
 20
295.500000
 11
402.007272
 21
336.500000
  0
LINE
  8
1
 62
7
  6
DIVIDE
 10
400.507272
 20
294.500000
 11
400.507272
 21
337.500000
  0
LINE
  8
1
 62
7
  6
DIVIDE
 10
401.507272
 20
337.000000
 11
401.507272
 21
295.000000
  0
LINE
  8
1
 62
7
  6
DIVIDE
 10
399.507272
 20
338.500000
 11
399.507272
 21
293.500000
  0
LINE
  8
1
 62
7
  6
DASHDOT
 10
405.007272
 20
316.000000
 11
393.832272
 21
316.000000
  0
LINE
  8
1
 62
7
  6
DASHDOT
 10
285.000000
 20
363.500000
 11
285.000000
 21
268.500000
  0
LINE
  8
1
 62
7
  6
DIVIDE
 10
219.500000
 20
358.500000
 11
219.000000
 21
358.000000
  0
LINE
  8
1
 62
7
  6
DIVIDE
 10
219.000000
 20
358.000000
 11
219.000000
 21
349.000000
  0
LINE
  8
1
 62
7
  6
DIVIDE
 10
350.500000
 20
358.500000
 11
219.500000
 21
358.500000
  0
LINE
  8
1
 62
7
  6
DIVIDE
 10
351.000000
 20
358.000000
 11
350.500000
 21
358.500000
  0
LINE
  8
1
 62
7
  6
DIVIDE
 10
351.000000
 20
349.000000
 11
351.000000
 21
358.000000
  0
LINE
  8
1
 62
7
  6
CONTINUOUS
 10
205.832272
 20
308.000000
 11
207.832272
 21
308.000000
  0
LINE
  8
1
 62
7
  6
DASHDOT
 10
203.832272
 20
455.000000
 11
208.832272
 21
455.000000
  0
ARC
  8
1
 62
7
  6
CONTINUOUS
 10
205.788399
 20
452.237088
 40
0.241113
 50
-79.516014
 51
-2.074120
  0
ARC
  8
1
 62
7
  6
CONTINUOUS
 10
203.383261
 20
453.254810
 40
2.838205
 50
-21.201826
 51
-7.615477
  0
ARC
  8
1
 62
7
  6
CONTINUOUS
 10
196.814015
 20
454.447918
 40
9.512741
 50
-9.495012
 51
-3.591903
  0
ARC
  8
1
 62
7
  6
CONTINUOUS
 10
190.295063
 20
454.973434
 40
16.052231
 50
-4.006217
 51
0.094822
  0
ARC
  8
1
 62
7
  6
CONTINUOUS
 10
189.673911
 20
455.005355
 40
16.673362
 50
-0.018403
 51
3.929798
  0
ARC
  8
1
 62
7
  6
CONTINUOUS
 10
195.542370
 20
455.406219
 40
10.791228
 50
3.941844
 51
9.145071
  0
ARC
  8
1
 62
7
  6
CONTINUOUS
 10
202.531788
 20
456.526432
 40
3.712615
 50
9.220504
 51
19.596799
  0
ARC
  8
1
 62
7
  6
CONTINUOUS
 10
205.656218
 20
457.648837
 40
0.392824
 50
18.216771
 51
63.373363
  0
LINE
  8
1
 62
7
  6
CONTINUOUS
 10
205.832272
 20
438.000000
 11
205.832272
 21
452.000000
  0
LINE
  8
1
 62
7
  6
CONTINUOUS
 10
205.832272
 20
457.500000
 11
206.050263
 21
457.717991
  0
LINE
  8
1
 62
7
  6
CONTINUOUS
 10
205.832272
 20
452.500000
 11
205.832272
 21
457.500000
  0
LINE
  8
1
 62
7
  6
CONTINUOUS
 10
205.832272
 20
452.500000
 11
206.050263
 21
452.282009
  0
LINE
  8
1
 62
7
  6
DASHDOT
 10
203.832272
 20
478.000000
 11
208.832272
 21
478.000000
  0
ARC
  8
1
 62
7
  6
CONTINUOUS
 10
205.788399
 20
480.762912
 40
0.241113
 50
2.074120
 51
79.516014
  0
ARC
  8
1
 62
7
  6
CONTINUOUS
 10
203.383261
 20
479.745190
 40
2.838205
 50
7.615477
 51
21.201826
  0
ARC
  8
1
 62
7
  6
CONTINUOUS
 10
196.814015
 20
478.552082
 40
9.512741
 50
3.591903
 51
9.495012
  0
ARC
  8
1
 62
7
  6
CONTINUOUS
 10
190.295063
 20
478.026566
 40
16.052231
 50
-0.094822
 51
4.006217
  0
ARC
  8
1
 62
7
  6
CONTINUOUS
 10
189.673911
 20
477.994645
 40
16.673362
 50
-3.929798
 51
0.018403
  0
ARC
  8
1
 62
7
  6
CONTINUOUS
 10
195.542370
 20
477.593781
 40
10.791228
 50
-9.145071
 51
-3.941844
  0
ARC
  8
1
 62
7
  6
CONTINUOUS
 10
202.531788
 20
476.473568
 40
3.712615
 50
-19.596799
 51
-9.220504
  0
ARC
  8
1
 62
7
  6
CONTINUOUS
 10
205.656218
 20
475.351163
 40
0.392824
 50
-63.373363
 51
-18.216771
  0
LINE
  8
1
 62
7
  6
CONTINUOUS
 10
205.832272
 20
475.500000
 11
206.050263
 21
475.282009
  0
LINE
  8
1
 62
7
  6
CONTINUOUS
 10
205.832272
 20
480.500000
 11
205.832272
 21
475.500000
  0
LINE
  8
1
 62
7
  6
CONTINUOUS
 10
205.832272
 20
480.500000
 11
206.050263
 21
480.717991
  0
LINE
  8
1
 62
7
  6
CONTINUOUS
 10
205.832272
 20
481.000000
 11
205.832272
 21
495.000000
  0
LINE
  8
1
 62
7
  6
CONTINUOUS
 10
205.832272
 20
458.000000
 11
205.832272
 21
475.000000
  0
LINE
  8
1
 62
7
  6
DASHDOT
 10
366.167728
 20
485.500000
 11
361.167728
 21
485.500000
  0
ARC
  8
1
 62
7
  6
CONTINUOUS
 10
364.211601
 20
488.262912
 40
0.241113
 50
100.483986
 51
177.925880
  0
ARC
  8
1
 62
7
  6
CONTINUOUS
 10
366.616739
 20
487.245190
 40
2.838205
 50
158.798174
 51
172.384523
  0
ARC
  8
1
 62
7
  6
CONTINUOUS
 10
373.185985
 20
486.052082
 40
9.512741
 50
170.504988
 51
176.408097
  0
ARC
  8
1
 62
7
  6
CONTINUOUS
 10
379.704937
 20
485.526566
 40
16.052231
 50
175.993783
 51
-179.905178
  0
ARC
  8
1
 62
7
  6
CONTINUOUS
 10
380.326089
 20
485.494645
 40
16.673362
 50
179.981597
 51
-176.070202
  0
ARC
  8
1
 62
7
  6
CONTINUOUS
 10
374.457630
 20
485.093781
 40
10.791228
 50
-176.058156
 51
-170.854929
  0
ARC
  8
1
 62
7
  6
CONTINUOUS
 10
367.468212
 20
483.973568
 40
3.712615
 50
-170.779496
 51
-160.403201
  0
ARC
  8
1
 62
7
  6
CONTINUOUS
 10
364.343782
 20
482.851163
 40
0.392824
 50
-161.783229
 51
-116.626637
  0
LINE
  8
1
 62
7
  6
CONTINUOUS
 10
364.167728
 20
483.000000
 11
363.949737
 21
482.782009
  0
LINE
  8
1
 62
7
  6
CONTINUOUS
 10
364.167728
 20
488.000000
 11
364.167728
 21
483.000000
  0
LINE
  8
1
 62
7
  6
CONTINUOUS
 10
364.167728
 20
488.000000
 11
363.949737
 21
488.217991
  0
LINE
  8
1
 62
7
  6
DASHDOT
 10
366.167728
 20
447.500000
 11
361.167728
 21
447.500000
  0
ARC
  8
1
 62
7
  6
CONTINUOUS
 10
364.211601
 20
444.737088
 40
0.241113
 50
-177.925880
 51
-100.483986
  0
ARC
  8
1
 62
7
  6
CONTINUOUS
 10
366.616739
 20
445.754810
 40
2.838205
 50
-172.384523
 51
-158.798174
  0
ARC
  8
1
 62
7
  6
CONTINUOUS
 10
373.185985
 20
446.947918
 40
9.512741
 50
-176.408097
 51
-170.504988
  0
ARC
  8
1
 62
7
  6
CONTINUOUS
 10
379.704937
 20
447.473434
 40
16.052231
 50
179.905178
 51
-175.993783
  0
ARC
  8
1
 62
7
  6
CONTINUOUS
 10
380.326089
 20
447.505355
 40
16.673362
 50
176.070202
 51
-179.981597
  0
ARC
  8
1
 62
7
  6
CONTINUOUS
 10
374.457630
 20
447.906219
 40
10.791228
 50
170.854929
 51
176.058156
  0
ARC
  8
1
 62
7
  6
CONTINUOUS
 10
367.468212
 20
449.026432
 40
3.712615
 50
160.403201
 51
170.779496
  0
ARC
  8
1
 62
7
  6
CONTINUOUS
 10
364.343782
 20
450.148837
 40
0.392824
 50
116.626637
 51
161.783229
  0
LINE
  8
1
 62
7
  6
CONTINUOUS
 10
364.167728
 20
450.000000
 11
363.949737
 21
450.217991
  0
LINE
  8
1
 62
7
  6
CONTINUOUS
 10
364.167728
 20
445.000000
 11
364.167728
 21
450.000000
  0
LINE
  8
1
 62
7
  6
CONTINUOUS
 10
364.167728
 20
445.000000
 11
363.949737
 21
444.782009
  0
LINE
  8
1
 62
7
  6
CONTINUOUS
 10
364.167728
 20
488.500000
 11
364.167728
 21
495.000000
  0
LINE
  8
1
 62
7
  6
CONTINUOUS
 10
364.167728
 20
470.500000
 11
364.167728
 21
482.500000
  0
LINE
  8
1
 62
7
  6
CONTINUOUS
 10
364.167728
 20
450.500000
 11
364.167728
 21
462.500000
  0
LINE
  8
1
 62
7
  6
CONTINUOUS
 10
364.167728
 20
438.000000
 11
364.167728
 21
444.500000
  0
CIRCLE
  8
1
 62
7
  6
CONTINUOUS
 10
121.000000
 20
317.500000
 40
2.000000
  0
CIRCLE
  8
1
 62
7
  6
CONTINUOUS
 10
121.000000
 20
317.500000
 40
1.650000
  0
LINE
  8
1
 62
7
  6
DASHDOT
 10
121.000000
 20
314.500000
 11
121.000000
 21
320.500000
  0
CIRCLE
  8
1
 62
7
  6
CONTINUOUS
 10
121.000000
 20
317.500000
 40
1.500000
  0
LINE
  8
1
 62
7
  6
CONTINUOUS
 10
120.400000
 20
318.500000
 11
119.800000
 21
317.500000
  0
LINE
  8
1
 62
7
  6
CONTINUOUS
 10
119.800000
 20
317.500000
 11
120.400000
 21
316.500000
  0
LINE
  8
1
 62
7
  6
CONTINUOUS
 10
120.400000
 20
316.500000
 11
121.600000
 21
316.500000
  0
LINE
  8
1
 62
7
  6
CONTINUOUS
 10
121.600000
 20
316.500000
 11
122.200000
 21
317.500000
  0
LINE
  8
1
 62
7
  6
CONTINUOUS
 10
122.200000
 20
317.500000
 11
121.600000
 21
318.500000
  0
LINE
  8
1
 62
7
  6
CONTINUOUS
 10
121.600000
 20
318.500000
 11
120.400000
 21
318.500000
  0
CIRCLE
  8
1
 62
7
  6
CONTINUOUS
 10
69.000000
 20
317.500000
 40
2.000000
  0
CIRCLE
  8
1
 62
7
  6
CONTINUOUS
 10
69.000000
 20
317.500000
 40
1.650000
  0
LINE
  8
1
 62
7
  6
DASHDOT
 10
69.000000
 20
314.500000
 11
69.000000
 21
320.500000
  0
CIRCLE
  8
1
 62
7
  6
CONTINUOUS
 10
69.000000
 20
317.500000
 40
1.500000
  0
LINE
  8
1
 62
7
  6
CONTINUOUS
 10
69.600000
 20
318.500000
 11
70.200000
 21
317.500000
  0
LINE
  8
1
 62
7
  6
CONTINUOUS
 10
70.200000
 20
317.500000
 11
69.600000
 21
316.500000
  0
LINE
  8
1
 62
7
  6
CONTINUOUS
 10
69.600000
 20
316.500000
 11
68.400000
 21
316.500000
  0
LINE
  8
1
 62
7
  6
CONTINUOUS
 10
68.400000
 20
316.500000
 11
67.800000
 21
317.500000
  0
LINE
  8
1
 62
7
  6
CONTINUOUS
 10
67.800000
 20
317.500000
 11
68.400000
 21
318.500000
  0
LINE
  8
1
 62
7
  6
CONTINUOUS
 10
68.400000
 20
318.500000
 11
69.600000
 21
318.500000
  0
CIRCLE
  8
1
 62
7
  6
CONTINUOUS
 10
121.000000
 20
292.500000
 40
2.000000
  0
CIRCLE
  8
1
 62
7
  6
CONTINUOUS
 10
121.000000
 20
292.500000
 40
1.650000
  0
LINE
  8
1
 62
7
  6
DASHDOT
 10
121.000000
 20
295.500000
 11
121.000000
 21
289.500000
  0
CIRCLE
  8
1
 62
7
  6
CONTINUOUS
 10
121.000000
 20
292.500000
 40
1.500000
  0
LINE
  8
1
 62
7
  6
CONTINUOUS
 10
120.400000
 20
291.500000
 11
119.800000
 21
292.500000
  0
LINE
  8
1
 62
7
  6
CONTINUOUS
 10
119.800000
 20
292.500000
 11
120.400000
 21
293.500000
  0
LINE
  8
1
 62
7
  6
CONTINUOUS
 10
120.400000
 20
293.500000
 11
121.600000
 21
293.500000
  0
LINE
  8
1
 62
7
  6
CONTINUOUS
 10
121.600000
 20
293.500000
 11
122.200000
 21
292.500000
  0
LINE
  8
1
 62
7
  6
CONTINUOUS
 10
122.200000
 20
292.500000
 11
121.600000
 21
291.500000
  0
LINE
  8
1
 62
7
  6
CONTINUOUS
 10
121.600000
 20
291.500000
 11
120.400000
 21
291.500000
  0
CIRCLE
  8
1
 62
7
  6
CONTINUOUS
 10
69.000000
 20
292.500000
 40
2.000000
  0
CIRCLE
  8
1
 62
7
  6
CONTINUOUS
 10
69.000000
 20
292.500000
 40
1.650000
  0
LINE
  8
1
 62
7
  6
DASHDOT
 10
69.000000
 20
295.500000
 11
69.000000
 21
289.500000
  0
CIRCLE
  8
1
 62
7
  6
CONTINUOUS
 10
69.000000
 20
292.500000
 40
1.500000
  0
LINE
  8
1
 62
7
  6
CONTINUOUS
 10
69.600000
 20
291.500000
 11
70.200000
 21
292.500000
  0
LINE
  8
1
 62
7
  6
CONTINUOUS
 10
70.200000
 20
292.500000
 11
69.600000
 21
293.500000
  0
LINE
  8
1
 62
7
  6
CONTINUOUS
 10
69.600000
 20
293.500000
 11
68.400000
 21
293.500000
  0
LINE
  8
1
 62
7
  6
CONTINUOUS
 10
68.400000
 20
293.500000
 11
67.800000
 21
292.500000
  0
LINE
  8
1
 62
7
  6
CONTINUOUS
 10
67.800000
 20
292.500000
 11
68.400000
 21
291.500000
  0
LINE
  8
1
 62
7
  6
CONTINUOUS
 10
68.400000
 20
291.500000
 11
69.600000
 21
291.500000
  0
CIRCLE
  8
1
 62
7
  6
CONTINUOUS
 10
521.000000
 20
317.500000
 40
2.000000
  0
CIRCLE
  8
1
 62
7
  6
CONTINUOUS
 10
521.000000
 20
317.500000
 40
1.650000
  0
LINE
  8
1
 62
7
  6
DASHDOT
 10
521.000000
 20
314.500000
 11
521.000000
 21
320.500000
  0
CIRCLE
  8
1
 62
7
  6
CONTINUOUS
 10
521.000000
 20
317.500000
 40
1.500000
  0
LINE
  8
1
 62
7
  6
CONTINUOUS
 10
520.400000
 20
318.500000
 11
519.800000
 21
317.500000
  0
LINE
  8
1
 62
7
  6
CONTINUOUS
 10
519.800000
 20
317.500000
 11
520.400000
 21
316.500000
  0
LINE
  8
1
 62
7
  6
CONTINUOUS
 10
520.400000
 20
316.500000
 11
521.600000
 21
316.500000
  0
LINE
  8
1
 62
7
  6
CONTINUOUS
 10
521.600000
 20
316.500000
 11
522.200000
 21
317.500000
  0
LINE
  8
1
 62
7
  6
CONTINUOUS
 10
522.200000
 20
317.500000
 11
521.600000
 21
318.500000
  0
LINE
  8
1
 62
7
  6
CONTINUOUS
 10
521.600000
 20
318.500000
 11
520.400000
 21
318.500000
  0
CIRCLE
  8
1
 62
7
  6
CONTINUOUS
 10
469.000000
 20
317.500000
 40
2.000000
  0
CIRCLE
  8
1
 62
7
  6
CONTINUOUS
 10
469.000000
 20
317.500000
 40
1.650000
  0
LINE
  8
1
 62
7
  6
DASHDOT
 10
469.000000
 20
314.500000
 11
469.000000
 21
320.500000
  0
CIRCLE
  8
1
 62
7
  6
CONTINUOUS
 10
469.000000
 20
317.500000
 40
1.500000
  0
LINE
  8
1
 62
7
  6
CONTINUOUS
 10
469.600000
 20
318.500000
 11
470.200000
 21
317.500000
  0
LINE
  8
1
 62
7
  6
CONTINUOUS
 10
470.200000
 20
317.500000
 11
469.600000
 21
316.500000
  0
LINE
  8
1
 62
7
  6
CONTINUOUS
 10
469.600000
 20
316.500000
 11
468.400000
 21
316.500000
  0
LINE
  8
1
 62
7
  6
CONTINUOUS
 10
468.400000
 20
316.500000
 11
467.800000
 21
317.500000
  0
LINE
  8
1
 62
7
  6
CONTINUOUS
 10
467.800000
 20
317.500000
 11
468.400000
 21
318.500000
  0
LINE
  8
1
 62
7
  6
CONTINUOUS
 10
468.400000
 20
318.500000
 11
469.600000
 21
318.500000
  0
CIRCLE
  8
1
 62
7
  6
CONTINUOUS
 10
521.000000
 20
292.500000
 40
2.000000
  0
CIRCLE
  8
1
 62
7
  6
CONTINUOUS
 10
521.000000
 20
292.500000
 40
1.650000
  0
LINE
  8
1
 62
7
  6
DASHDOT
 10
521.000000
 20
289.500000
 11
521.000000
 21
295.500000
  0
CIRCLE
  8
1
 62
7
  6
CONTINUOUS
 10
521.000000
 20
292.500000
 40
1.500000
  0
LINE
  8
1
 62
7
  6
CONTINUOUS
 10
520.400000
 20
293.500000
 11
519.800000
 21
292.500000
  0
LINE
  8
1
 62
7
  6
CONTINUOUS
 10
519.800000
 20
292.500000
 11
520.400000
 21
291.500000
  0
LINE
  8
1
 62
7
  6
CONTINUOUS
 10
520.400000
 20
291.500000
 11
521.600000
 21
291.500000
  0
LINE
  8
1
 62
7
  6
CONTINUOUS
 10
521.600000
 20
291.500000
 11
522.200000
 21
292.500000
  0
LINE
  8
1
 62
7
  6
CONTINUOUS
 10
522.200000
 20
292.500000
 11
521.600000
 21
293.500000
  0
LINE
  8
1
 62
7
  6
CONTINUOUS
 10
521.600000
 20
293.500000
 11
520.400000
 21
293.500000
  0
CIRCLE
  8
1
 62
7
  6
CONTINUOUS
 10
469.000000
 20
292.500000
 40
2.000000
  0
CIRCLE
  8
1
 62
7
  6
CONTINUOUS
 10
469.000000
 20
292.500000
 40
1.650000
  0
LINE
  8
1
 62
7
  6
DASHDOT
 10
469.000000
 20
289.500000
 11
469.000000
 21
295.500000
  0
CIRCLE
  8
1
 62
7
  6
CONTINUOUS
 10
469.000000
 20
292.500000
 40
1.500000
  0
LINE
  8
1
 62
7
  6
CONTINUOUS
 10
469.600000
 20
293.500000
 11
470.200000
 21
292.500000
  0
LINE
  8
1
 62
7
  6
CONTINUOUS
 10
470.200000
 20
292.500000
 11
469.600000
 21
291.500000
  0
LINE
  8
1
 62
7
  6
CONTINUOUS
 10
469.600000
 20
291.500000
 11
468.400000
 21
291.500000
  0
LINE
  8
1
 62
7
  6
CONTINUOUS
 10
468.400000
 20
291.500000
 11
467.800000
 21
292.500000
  0
LINE
  8
1
 62
7
  6
CONTINUOUS
 10
467.800000
 20
292.500000
 11
468.400000
 21
293.500000
  0
LINE
  8
1
 62
7
  6
CONTINUOUS
 10
468.400000
 20
293.500000
 11
469.600000
 21
293.500000
  0
LINE
  8
1
 62
7
  6
CONTINUOUS
 10
634.000000
 20
106.000000
 11
810.000000
 21
106.000000
  0
LINE
  8
1
 62
7
  6
CONTINUOUS
 10
634.000000
 20
106.000000
 11
634.000000
 21
34.000000
  0
LINE
  8
1
 62
7
  6
CONTINUOUS
 10
634.000000
 20
86.000000
 11
690.000000
 21
86.000000
  0
LINE
  8
1
 62
7
  6
CONTINUOUS
 10
634.000000
 20
58.000000
 11
810.000000
 21
58.000000
  0
TEXT
  8
1
 62
7
  6
CONTINUOUS
 10
771.000000
 20
39.000000
 40
6.000000
 41
1.000000
  1
1/1
  7
KANJI
 50
0.000000
 51
0.000000
  0
TEXT
  8
1
 62
7
  6
CONTINUOUS
 10
797.000000
 20
39.000000
 40
6.000000
 41
1.000000
  1
-
  7
KANJI
 50
0.000000
 51
0.000000
  0
TEXT
  8
1
 62
7
  6
CONTINUOUS
 10
659.000000
 20
39.000000
 40
6.000000
 41
0.578703
  1
－
  7
KANJI
 50
0.000000
 51
0.000000
  0
TEXT
  8
1
 62
7
  6
CONTINUOUS
 10
662.754497
 20
89.000000
 40
6.000000
 41
0.578703
  1
－
  7
KANJI
 50
0.000000
 51
0.000000
  0
LINE
  8
1
 62
7
  6
CONTINUOUS
 10
0.000000
 20
0.000000
 11
20.000000
 21
0.000000
  0
LINE
  8
1
 62
7
  6
CONTINUOUS
 10
0.000000
 20
0.000000
 11
0.000000
 21
20.000000
  0
LINE
  8
1
 62
7
  6
CONTINUOUS
 10
30.000000
 20
568.000000
 11
810.000000
 21
568.000000
  0
LINE
  8
1
 62
7
  6
CONTINUOUS
 10
30.000000
 20
34.000000
 11
810.000000
 21
34.000000
  0
LINE
  8
1
 62
7
  6
CONTINUOUS
 10
30.000000
 20
34.000000
 11
30.000000
 21
568.000000
  0
LINE
  8
1
 62
7
  6
CONTINUOUS
 10
30.000000
 20
34.000000
 11
178.000000
 21
34.000000
  0
LINE
  8
1
 62
7
  6
CONTINUOUS
 10
30.000000
 20
34.000000
 11
30.000000
 21
121.600000
  0
TEXT
  8
1
 62
7
  6
CONTINUOUS
 10
91.800000
 20
24.800000
 40
6.400000
 41
1.000000
  1
1
  7
KANJI
 50
0.000000
 51
0.000000
  0
LINE
  8
1
 62
7
  6
CONTINUOUS
 10
160.000000
 20
34.000000
 11
160.000000
 21
28.000000
  0
TEXT
  8
1
 62
7
  6
CONTINUOUS
 10
21.800000
 20
75.300000
 40
6.400000
 41
1.000000
  1
F
  7
KANJI
 50
0.000000
 51
0.000000
  0
LINE
  8
1
 62
7
  6
CONTINUOUS
 10
30.000000
 20
123.000000
 11
24.000000
 21
123.000000
  0
TEXT
  8
1
 62
7
  6
CONTINUOUS
 10
21.800000
 20
164.300000
 40
6.400000
 41
1.000000
  1
E
  7
KANJI
 50
0.000000
 51
0.000000
  0
LINE
  8
1
 62
7
  6
CONTINUOUS
 10
30.000000
 20
212.000000
 11
24.000000
 21
212.000000
  0
TEXT
  8
1
 62
7
  6
CONTINUOUS
 10
221.800000
 20
24.800000
 40
6.400000
 41
1.000000
  1
2
  7
KANJI
 50
0.000000
 51
0.000000
  0
LINE
  8
1
 62
7
  6
CONTINUOUS
 10
290.000000
 20
34.000000
 11
290.000000
 21
28.000000
  0
TEXT
  8
1
 62
7
  6
CONTINUOUS
 10
351.800000
 20
24.800000
 40
6.400000
 41
1.000000
  1
3
  7
KANJI
 50
0.000000
 51
0.000000
  0
TEXT
  8
1
 62
7
  6
CONTINUOUS
 10
21.800000
 20
431.300000
 40
6.400000
 41
1.000000
  1
B
  7
KANJI
 50
0.000000
 51
0.000000
  0
TEXT
  8
1
 62
7
  6
CONTINUOUS
 10
21.800000
 20
253.300000
 40
6.400000
 41
1.000000
  1
D
  7
KANJI
 50
0.000000
 51
0.000000
  0
LINE
  8
1
 62
7
  6
CONTINUOUS
 10
24.000000
 20
301.000000
 11
36.000000
 21
301.000000
  0
LINE
  8
1
 62
7
  6
CONTINUOUS
 10
36.000000
 20
301.000000
 11
24.000000
 21
301.000000
  0
TEXT
  8
1
 62
7
  6
CONTINUOUS
 10
21.800000
 20
342.300000
 40
6.400000
 41
1.000000
  1
C
  7
KANJI
 50
0.000000
 51
0.000000
  0
LINE
  8
1
 62
7
  6
CONTINUOUS
 10
30.000000
 20
390.000000
 11
24.000000
 21
390.000000
  0
LINE
  8
1
 62
7
  6
CONTINUOUS
 10
30.000000
 20
479.000000
 11
24.000000
 21
479.000000
  0
TEXT
  8
1
 62
7
  6
CONTINUOUS
 10
21.800000
 20
520.300000
 40
6.400000
 41
1.000000
  1
A
  7
KANJI
 50
0.000000
 51
0.000000
  0
TEXT
  8
1
 62
7
  6
CONTINUOUS
 10
91.800000
 20
570.800000
 40
6.400000
 41
1.000000
  1
1
  7
KANJI
 50
0.000000
 51
0.000000
  0
LINE
  8
1
 62
7
  6
CONTINUOUS
 10
160.000000
 20
568.000000
 11
160.000000
 21
574.000000
  0
TEXT
  8
1
 62
7
  6
CONTINUOUS
 10
221.800000
 20
570.800000
 40
6.400000
 41
1.000000
  1
2
  7
KANJI
 50
0.000000
 51
0.000000
  0
LINE
  8
1
 62
7
  6
CONTINUOUS
 10
290.000000
 20
568.000000
 11
290.000000
 21
574.000000
  0
TEXT
  8
1
 62
7
  6
CONTINUOUS
 10
351.800000
 20
570.800000
 40
6.400000
 41
1.000000
  1
3
  7
KANJI
 50
0.000000
 51
0.000000
  0
LINE
  8
1
 62
7
  6
CONTINUOUS
 10
420.000000
 20
562.000000
 11
420.000000
 21
574.000000
  0
LINE
  8
1
 62
7
  6
CONTINUOUS
 10
810.000000
 20
34.000000
 11
810.000000
 21
568.000000
  0
TEXT
  8
1
 62
7
  6
CONTINUOUS
 10
773.280000
 20
51.200000
 40
5.600000
 41
0.600000
  1
Page
  7
KANJI
 50
0.000000
 51
0.000000
  0
LINE
  8
1
 62
7
  6
CONTINUOUS
 10
634.000000
 20
50.000000
 11
810.000000
 21
50.000000
  0
LINE
  8
1
 62
7
  6
CONTINUOUS
 10
714.000000
 20
74.000000
 11
810.000000
 21
74.000000
  0
LINE
  8
1
 62
7
  6
CONTINUOUS
 10
690.000000
 20
90.000000
 11
810.000000
 21
90.000000
  0
LINE
  8
1
 62
7
  6
CONTINUOUS
 10
770.000000
 20
34.000000
 11
770.000000
 21
58.000000
  0
LINE
  8
1
 62
7
  6
CONTINUOUS
 10
690.000000
 20
34.000000
 11
690.000000
 21
106.000000
  0
TEXT
  8
1
 62
7
  6
CONTINUOUS
 10
481.800000
 20
24.800000
 40
6.400000
 41
1.000000
  1
4
  7
KANJI
 50
0.000000
 51
0.000000
  0
LINE
  8
1
 62
7
  6
CONTINUOUS
 10
550.000000
 20
34.000000
 11
550.000000
 21
28.000000
  0
TEXT
  8
1
 62
7
  6
CONTINUOUS
 10
611.800000
 20
24.800000
 40
6.400000
 41
1.000000
  1
5
  7
KANJI
 50
0.000000
 51
0.000000
  0
LINE
  8
1
 62
7
  6
CONTINUOUS
 10
680.000000
 20
34.000000
 11
680.000000
 21
28.000000
  0
TEXT
  8
1
 62
7
  6
CONTINUOUS
 10
741.800000
 20
24.800000
 40
6.400000
 41
1.000000
  1
6
  7
KANJI
 50
0.000000
 51
0.000000
  0
TEXT
  8
1
 62
7
  6
CONTINUOUS
 10
690.240000
 20
95.200000
 40
5.600000
 41
0.600000
  1
PRODUCT
  7
KANJI
 50
0.000000
 51
0.000000
  0
TEXT
  8
1
 62
7
  6
CONTINUOUS
 10
692.400000
 20
70.800000
 40
6.400000
 41
0.600000
  1
TITLE
  7
KANJI
 50
0.000000
 51
0.000000
  0
TEXT
  8
1
 62
7
  6
CONTINUOUS
 10
643.520000
 20
51.200000
 40
5.600000
 41
0.752539
  1
Product No.
  7
KANJI
 50
0.000000
 51
0.000000
  0
LINE
  8
1
 62
7
  6
DASHDOT
 10
644.000000
 20
69.000000
 11
660.000000
 21
69.000000
  0
CIRCLE
  8
1
 62
7
  6
CONTINUOUS
 10
652.000000
 20
69.000000
 40
4.000000
  0
CIRCLE
  8
1
 62
7
  6
CONTINUOUS
 10
652.000000
 20
69.000000
 40
6.000000
  0
LINE
  8
1
 62
7
  6
DASHDOT
 10
652.000000
 20
61.000000
 11
652.000000
 21
77.000000
  0
TEXT
  8
1
 62
7
  6
CONTINUOUS
 10
636.000000
 20
79.200000
 40
4.800000
 41
0.600000
  1
PROJECTION
  7
KANJI
 50
0.000000
 51
0.000000
  0
LINE
  8
1
 62
7
  6
CONTINUOUS
 10
668.000000
 20
65.000000
 11
668.000000
 21
73.000000
  0
LINE
  8
1
 62
7
  6
CONTINUOUS
 10
668.000000
 20
73.000000
 11
678.000000
 21
75.000000
  0
LINE
  8
1
 62
7
  6
DASHDOT
 10
666.000000
 20
69.000000
 11
680.000000
 21
69.000000
  0
LINE
  8
1
 62
7
  6
CONTINUOUS
 10
678.000000
 20
63.000000
 11
678.000000
 21
75.000000
  0
LINE
  8
1
 62
7
  6
CONTINUOUS
 10
668.000000
 20
65.000000
 11
678.000000
 21
63.000000
  0
TEXT
  8
1
 62
7
  6
CONTINUOUS
 10
636.000000
 20
99.200000
 40
4.800000
 41
0.600000
  1
QUANTITY
  7
KANJI
 50
0.000000
 51
0.000000
  0
LINE
  8
1
 62
7
  6
CONTINUOUS
 10
714.000000
 20
58.000000
 11
714.000000
 21
106.000000
  0
TEXT
  8
1
 62
7
  6
CONTINUOUS
 10
711.520000
 20
51.200000
 40
5.600000
 41
0.752539
  1
Drawing No.
  7
KANJI
 50
0.000000
 51
0.000000
  0
LINE
  8
1
 62
7
  6
CONTINUOUS
 10
790.000000
 20
34.000000
 11
790.000000
 21
58.000000
  0
TEXT
  8
1
 62
7
  6
CONTINUOUS
 10
811.800000
 20
75.300000
 40
6.400000
 41
1.000000
  1
F
  7
KANJI
 50
0.000000
 51
0.000000
  0
TEXT
  8
1
 62
7
  6
CONTINUOUS
 10
793.280000
 20
51.200000
 40
5.600000
 41
0.823046
  1
Rev.
  7
KANJI
 50
0.000000
 51
0.000000
  0
LINE
  8
1
 62
7
  6
CONTINUOUS
 10
810.000000
 20
123.000000
 11
816.000000
 21
123.000000
  0
TEXT
  8
1
 62
7
  6
CONTINUOUS
 10
811.800000
 20
164.300000
 40
6.400000
 41
1.000000
  1
E
  7
KANJI
 50
0.000000
 51
0.000000
  0
LINE
  8
1
 62
7
  6
CONTINUOUS
 10
810.000000
 20
212.000000
 11
816.000000
 21
212.000000
  0
TEXT
  8
1
 62
7
  6
CONTINUOUS
 10
481.800000
 20
570.800000
 40
6.400000
 41
1.000000
  1
4
  7
KANJI
 50
0.000000
 51
0.000000
  0
LINE
  8
1
 62
7
  6
CONTINUOUS
 10
550.000000
 20
568.000000
 11
550.000000
 21
574.000000
  0
TEXT
  8
1
 62
7
  6
CONTINUOUS
 10
611.800000
 20
570.800000
 40
6.400000
 41
1.000000
  1
5
  7
KANJI
 50
0.000000
 51
0.000000
  0
LINE
  8
1
 62
7
  6
CONTINUOUS
 10
680.000000
 20
568.000000
 11
680.000000
 21
574.000000
  0
TEXT
  8
1
 62
7
  6
CONTINUOUS
 10
741.800000
 20
570.800000
 40
6.400000
 41
1.000000
  1
6
  7
KANJI
 50
0.000000
 51
0.000000
  0
TEXT
  8
1
 62
7
  6
CONTINUOUS
 10
811.800000
 20
431.300000
 40
6.400000
 41
1.000000
  1
B
  7
KANJI
 50
0.000000
 51
0.000000
  0
TEXT
  8
1
 62
7
  6
CONTINUOUS
 10
811.800000
 20
253.300000
 40
6.400000
 41
1.000000
  1
D
  7
KANJI
 50
0.000000
 51
0.000000
  0
LINE
  8
1
 62
7
  6
CONTINUOUS
 10
804.000000
 20
301.000000
 11
816.000000
 21
301.000000
  0
TEXT
  8
1
 62
7
  6
CONTINUOUS
 10
811.800000
 20
342.300000
 40
6.400000
 41
1.000000
  1
C
  7
KANJI
 50
0.000000
 51
0.000000
  0
LINE
  8
1
 62
7
  6
CONTINUOUS
 10
810.000000
 20
390.000000
 11
816.000000
 21
390.000000
  0
LINE
  8
1
 62
7
  6
CONTINUOUS
 10
810.000000
 20
479.000000
 11
816.000000
 21
479.000000
  0
TEXT
  8
1
 62
7
  6
CONTINUOUS
 10
811.800000
 20
520.300000
 40
6.400000
 41
1.000000
  1
A
  7
KANJI
 50
0.000000
 51
0.000000
  0
LINE
  8
1
 62
7
  6
CONTINUOUS
 10
820.000000
 20
-0.065413
 11
840.000000
 21
-0.065413
  0
LINE
  8
1
 62
7
  6
CONTINUOUS
 10
840.000000
 20
-0.065413
 11
840.000000
 21
19.934587
  0
LINE
  8
1
 62
7
  6
CONTINUOUS
 10
0.000000
 20
594.000000
 11
20.000000
 21
594.000000
  0
LINE
  8
1
 62
7
  6
CONTINUOUS
 10
0.000000
 20
574.000000
 11
0.000000
 21
594.000000
  0
LINE
  8
1
 62
7
  6
CONTINUOUS
 10
820.000000
 20
594.000000
 11
840.000000
 21
594.000000
  0
LINE
  8
1
 62
7
  6
CONTINUOUS
 10
840.000000
 20
573.934587
 11
840.000000
 21
594.000000
  0
TEXT
  8
1
 62
7
  6
CONTINUOUS
 10
718.000000
 20
94.500000
 40
7.000000
 41
0.571429
  1
LABZ-22
  7
KANJI
 50
0.000000
 51
0.000000
  0
TEXT
  8
1
 62
7
  6
CONTINUOUS
 10
717.442000
 20
78.500000
 40
7.000000
 41
0.595238
  1
精密ラボジャッキ
  7
KANJI
 50
0.000000
 51
0.000000
  0
ENDSEC
  0
EOF
