  0
SECTION
  2
HEADER
  9
$ACADVER
  1
AC1004
  9
$INSBASE
 10
0.000000
 20
0.000000
  9
$EXTMIN
 10
0.000000
 20
0.000000
  9
$EXTMAX
 10
841.000000
 20
594.000000
  9
$LIMMIN
 10
0.000000
 20
0.000000
  9
$LIMMAX
 10
841.000000
 20
594.000000
  9
$VIEWCTR
 10
420.500000
 20
297.000000
  9
$VIEWSIZE
 40
594.000000
  9
$PEXTMIN
 10
0.000000
 20
0.000000
 30
0.000000
  9
$PEXTMAX
 10
841.000000
 20
594.000000
 30
0.000000
  9
$SNAPMODE
 70
     0
  9
$SNAPUNIT
 10
1.000000
 20
1.000000
  9
$SNAPBASE
 10
0.000000
 20
0.000000
  9
$SNAPANG
 50
0.000000
  9
$SNAPISOPAIR
 70
     0
  9
$SNAPSTYLE
 70
     0
  9
$GRIDMODE
 70
     0
  9
$GRIDUNIT
 10
0.000000
 20
0.000000
  9
$ORTHOMODE
 70
     0
  9
$REGENMODE
 70
     1
  9
$FILLMODE
 70
     1
  9
$QTEXTMODE
 70
     0
  9
$DRAGMODE
 70
     2
  9
$LTSCALE
 40
0.250000
  9
$OSMODE
 70
     0
  9
$ATTMODE
 70
     1
  9
$TEXTSIZE
 40
3.500000
  9
$TRACEWID
 40
0.050000
  9
$TEXTSTYLE
  7
STANDARD
  9
$CLAYER
  8
0
  9
$CELTYPE
  6
BYLAYER
  9
$CECOLOR
 62
   256
  9
$DIMSCALE
 40
1.000000
  9
$DIMASZ
 40
1.000000
  9
$DIMEXO
 40
0.000000
  9
$DIMDLI
 40
0.500000
  9
$DIMRND
 40
0.000000
  9
$DIMDLE
 40
0.000000
  9
$DIMEXE
 40
0.000000
  9
$DIMTP
 40
0.000000
  9
$DIMTM
 40
0.000000
  9
$DIMTXT
 40
3.500000
  9
$DIMCEN
 40
0.000000
  9
$DIMTSZ
 40
0.000000
  9
$DIMTOL
 70
     0
  9
$DIMLIM
 70
     0
  9
$DIMTIH
 70
     1
  9
$DIMTOH
 70
     1
  9
$DIMSE1
 70
     0
  9
$DIMSE2
 70
     0
  9
$DIMTAD
 70
     0
  9
$DIMZIN
 70
     0
  9
$DIMBLK
  1

  9
$DIMASO
 70
     0
  9
$DIMSHO
 70
     0
  9
$DIMPOST
  1

  9
$DIMAPOST
  1

  9
$DIMALT
 70
     0
  9
$DIMALTD
 70
     0
  9
$DIMALTF
 40
25.400000
  9
$DIMLFAC
 40
1.000000
  9
$DIMTOFL
 70
     0
  9
$DIMTVP
 40
0.000000
  9
$DIMTIX
 70
     0
  9
$DIMSOXD
 70
     0
  9
$DIMSAH
 70
     0
  9
$DIMBLKL
  1

  9
$DIMBLKR
  1

  9
$LUNITS
 70
     2
  9
$LUPREC
 70
     2
  9
$AXISMODE
 70
     0
  9
$AXISUNIT
 10
1.000000
 20
1.000000
  9
$SKETCHINC
 40
0.000000
  9
$FILLETRAD
 40
0.000000
  9
$AUNITS
 70
     1
  9
$AUPREC
 70
     2
  9
$MENU
  1
ACAD
  9
$ELEVATION
 40
0.000000
  9
$THICKNESS
 40
0.000000
  9
$VIEWDIR
 10
0.000000
 20
0.000000
 30
1.000000
  9
$LIMCHECK
 70
     1
  9
$BLIPMODE
 70
     1
  9
$CHAMFERA
 40
0.000000
  9
$CHAMFERB
 40
0.000000
  9
$FASTZOOM
 70
     1
  9
$SKPOLY
 70
     0
  9
$TDCREATE
 40
0.000000
  9
$TDUPDATE
 40
0.000000
  9
$TDINDWG
 40
0.000000
  9
$TDUSRTIMER
 40
0.000000
  9
$USRTIMER
 70
     1
  9
$ANGBASE
 50
0.000000
  9
$ANGDIR
 70
     0
  9
$PDMODE
 70
     0
  9
$PDSIZE
 40
0.000000
  9
$PLINEWID
 40
0.000000
  9
$COORDS
 70
     2
  9
$USERI1
 70
     0
  9
$USERI2
 70
     0
  9
$USERI3
 70
     0
  9
$USERI4
 70
     0
  9
$USERI5
 70
     0
  9
$USERR1
 40
0.000000
  9
$USERR2
 40
0.000000
  9
$USERR3
 40
0.000000
  9
$USERR4
 40
0.000000
  9
$USERR5
 40
0.000000
  0
ENDSEC
  0
SECTION
  2
TABLES
  0
TABLE
  2
LTYPE
 70
     5
  0
LTYPE
  2
CONTINUOUS
 70
    64
  3
Solid line
 72
    65
 73
     0
 40
0.0
  0
LTYPE
  2
HIDDEN
 70
    64
  3
------------------------
 72
    65
 73
     2
 40
12.6
 49
8.4
 49
-4.2
  0
LTYPE
  2
DOT
 70
    64
  3
････････････････････････
 72
    65
 73
     2
 40
8.0
 49
6.0
 49
-2.0
  0
LTYPE
  2
DASHDOT
 70
    64
  3
--･--･--･--･--･--･--･--
 72
    65
 73
     4
 40
50.5
 49
30.0
 49
-9.0
 49
2.5
 49
-9.0
  0
LTYPE
  2
DIVIDE
 70
    64
  3
--･･--･･--･･--･･--･･--
 72
    65
 73
     6
 40
58.0
 49
30.0
 49
-9.0
 49
2.5
 49
-5.0
 49
2.5
 49
-9.0
  0
LTYPE
  2
ACAD_ISO06W100
 70
    64
  3
____ ... ____ ... ____
 72
    65
 73
     8
 40
37.5
 49
24.0
 49
-3.0
 49
0.5
 49
-3.0
 49
0.5
 49
-3.0
 49
0.5
 49
-3.0
  0
LTYPE
  2
ACAD_ISO14W100
 70
    64
  3
__ . . . __ . . . __ . . . 
 72
    65
 73
     8
 40
25.5
 49
12.0
 49
-3.0
 49
0.5
 49
-3.0
 49
0.5
 49
-3.0
 49
0.5
 49
-3.0
  0
ENDTAB
  0
TABLE
  2
LAYER
 70
1
  0
LAYER
  2
1
 70
64
 62
7
  6
CONTINUOUS
  0
ENDTAB
  0
TABLE
  2
STYLE
 70
     2
  0
STYLE
  2
STANDARD
 70
    64
 40
0.0
 41
1.0
 50
0.0
 71
     0
 42
0.2
  3
TXT
  4

  0
STYLE
  2
KANJI
 70
    64
 40
0.0
 41
1.0
 50
0.0
 71
     0
 42
0.2
  3
TXT
  4
BIGFONT
  0
ENDTAB
  0
TABLE
  2
VIEW
 70
     0
  0
ENDTAB
  0
ENDSEC
  0
SECTION
  2
BLOCKS
  0
ENDSEC
  0
SECTION
  2
ENTITIES
  0
LINE
  8
1
 62
7
  6
CONTINUOUS
 10
634.000000
 20
106.000000
 11
810.000000
 21
106.000000
  0
LINE
  8
1
 62
7
  6
CONTINUOUS
 10
634.000000
 20
106.000000
 11
634.000000
 21
34.000000
  0
LINE
  8
1
 62
7
  6
CONTINUOUS
 10
634.000000
 20
86.000000
 11
690.000000
 21
86.000000
  0
LINE
  8
1
 62
7
  6
CONTINUOUS
 10
634.000000
 20
58.000000
 11
810.000000
 21
58.000000
  0
TEXT
  8
1
 62
7
  6
CONTINUOUS
 10
771.000000
 20
39.000000
 40
6.000000
 41
1.000000
  1
1/1
  7
KANJI
 50
0.000000
 51
0.000000
  0
TEXT
  8
1
 62
7
  6
CONTINUOUS
 10
797.000000
 20
39.000000
 40
6.000000
 41
1.000000
  1
-
  7
KANJI
 50
0.000000
 51
0.000000
  0
TEXT
  8
1
 62
7
  6
CONTINUOUS
 10
659.000000
 20
39.000000
 40
6.000000
 41
0.578703
  1
－
  7
KANJI
 50
0.000000
 51
0.000000
  0
TEXT
  8
1
 62
7
  6
CONTINUOUS
 10
662.754497
 20
89.000000
 40
6.000000
 41
0.578703
  1
－
  7
KANJI
 50
0.000000
 51
0.000000
  0
LINE
  8
1
 62
7
  6
CONTINUOUS
 10
0.000000
 20
0.000000
 11
20.000000
 21
0.000000
  0
LINE
  8
1
 62
7
  6
CONTINUOUS
 10
0.000000
 20
0.000000
 11
0.000000
 21
20.000000
  0
LINE
  8
1
 62
7
  6
CONTINUOUS
 10
30.000000
 20
568.000000
 11
810.000000
 21
568.000000
  0
LINE
  8
1
 62
7
  6
CONTINUOUS
 10
30.000000
 20
34.000000
 11
810.000000
 21
34.000000
  0
LINE
  8
1
 62
7
  6
CONTINUOUS
 10
30.000000
 20
34.000000
 11
30.000000
 21
568.000000
  0
LINE
  8
1
 62
7
  6
CONTINUOUS
 10
30.000000
 20
34.000000
 11
178.000000
 21
34.000000
  0
LINE
  8
1
 62
7
  6
CONTINUOUS
 10
30.000000
 20
34.000000
 11
30.000000
 21
121.600000
  0
TEXT
  8
1
 62
7
  6
CONTINUOUS
 10
91.800000
 20
24.800000
 40
6.400000
 41
1.000000
  1
1
  7
KANJI
 50
0.000000
 51
0.000000
  0
LINE
  8
1
 62
7
  6
CONTINUOUS
 10
160.000000
 20
34.000000
 11
160.000000
 21
28.000000
  0
TEXT
  8
1
 62
7
  6
CONTINUOUS
 10
21.800000
 20
75.300000
 40
6.400000
 41
1.000000
  1
F
  7
KANJI
 50
0.000000
 51
0.000000
  0
LINE
  8
1
 62
7
  6
CONTINUOUS
 10
30.000000
 20
123.000000
 11
24.000000
 21
123.000000
  0
TEXT
  8
1
 62
7
  6
CONTINUOUS
 10
21.800000
 20
164.300000
 40
6.400000
 41
1.000000
  1
E
  7
KANJI
 50
0.000000
 51
0.000000
  0
LINE
  8
1
 62
7
  6
CONTINUOUS
 10
30.000000
 20
212.000000
 11
24.000000
 21
212.000000
  0
TEXT
  8
1
 62
7
  6
CONTINUOUS
 10
221.800000
 20
24.800000
 40
6.400000
 41
1.000000
  1
2
  7
KANJI
 50
0.000000
 51
0.000000
  0
LINE
  8
1
 62
7
  6
CONTINUOUS
 10
290.000000
 20
34.000000
 11
290.000000
 21
28.000000
  0
TEXT
  8
1
 62
7
  6
CONTINUOUS
 10
351.800000
 20
24.800000
 40
6.400000
 41
1.000000
  1
3
  7
KANJI
 50
0.000000
 51
0.000000
  0
TEXT
  8
1
 62
7
  6
CONTINUOUS
 10
21.800000
 20
431.300000
 40
6.400000
 41
1.000000
  1
B
  7
KANJI
 50
0.000000
 51
0.000000
  0
TEXT
  8
1
 62
7
  6
CONTINUOUS
 10
21.800000
 20
253.300000
 40
6.400000
 41
1.000000
  1
D
  7
KANJI
 50
0.000000
 51
0.000000
  0
LINE
  8
1
 62
7
  6
CONTINUOUS
 10
24.000000
 20
301.000000
 11
36.000000
 21
301.000000
  0
LINE
  8
1
 62
7
  6
CONTINUOUS
 10
36.000000
 20
301.000000
 11
24.000000
 21
301.000000
  0
TEXT
  8
1
 62
7
  6
CONTINUOUS
 10
21.800000
 20
342.300000
 40
6.400000
 41
1.000000
  1
C
  7
KANJI
 50
0.000000
 51
0.000000
  0
LINE
  8
1
 62
7
  6
CONTINUOUS
 10
30.000000
 20
390.000000
 11
24.000000
 21
390.000000
  0
LINE
  8
1
 62
7
  6
CONTINUOUS
 10
30.000000
 20
479.000000
 11
24.000000
 21
479.000000
  0
TEXT
  8
1
 62
7
  6
CONTINUOUS
 10
21.800000
 20
520.300000
 40
6.400000
 41
1.000000
  1
A
  7
KANJI
 50
0.000000
 51
0.000000
  0
TEXT
  8
1
 62
7
  6
CONTINUOUS
 10
91.800000
 20
570.800000
 40
6.400000
 41
1.000000
  1
1
  7
KANJI
 50
0.000000
 51
0.000000
  0
LINE
  8
1
 62
7
  6
CONTINUOUS
 10
160.000000
 20
568.000000
 11
160.000000
 21
574.000000
  0
TEXT
  8
1
 62
7
  6
CONTINUOUS
 10
221.800000
 20
570.800000
 40
6.400000
 41
1.000000
  1
2
  7
KANJI
 50
0.000000
 51
0.000000
  0
LINE
  8
1
 62
7
  6
CONTINUOUS
 10
290.000000
 20
568.000000
 11
290.000000
 21
574.000000
  0
TEXT
  8
1
 62
7
  6
CONTINUOUS
 10
351.800000
 20
570.800000
 40
6.400000
 41
1.000000
  1
3
  7
KANJI
 50
0.000000
 51
0.000000
  0
LINE
  8
1
 62
7
  6
CONTINUOUS
 10
420.000000
 20
562.000000
 11
420.000000
 21
574.000000
  0
LINE
  8
1
 62
7
  6
CONTINUOUS
 10
810.000000
 20
34.000000
 11
810.000000
 21
568.000000
  0
TEXT
  8
1
 62
7
  6
CONTINUOUS
 10
773.280000
 20
51.200000
 40
5.600000
 41
0.600000
  1
Page
  7
KANJI
 50
0.000000
 51
0.000000
  0
LINE
  8
1
 62
7
  6
CONTINUOUS
 10
634.000000
 20
50.000000
 11
810.000000
 21
50.000000
  0
LINE
  8
1
 62
7
  6
CONTINUOUS
 10
714.000000
 20
74.000000
 11
810.000000
 21
74.000000
  0
LINE
  8
1
 62
7
  6
CONTINUOUS
 10
690.000000
 20
90.000000
 11
810.000000
 21
90.000000
  0
LINE
  8
1
 62
7
  6
CONTINUOUS
 10
770.000000
 20
34.000000
 11
770.000000
 21
58.000000
  0
LINE
  8
1
 62
7
  6
CONTINUOUS
 10
690.000000
 20
34.000000
 11
690.000000
 21
106.000000
  0
TEXT
  8
1
 62
7
  6
CONTINUOUS
 10
481.800000
 20
24.800000
 40
6.400000
 41
1.000000
  1
4
  7
KANJI
 50
0.000000
 51
0.000000
  0
LINE
  8
1
 62
7
  6
CONTINUOUS
 10
550.000000
 20
34.000000
 11
550.000000
 21
28.000000
  0
TEXT
  8
1
 62
7
  6
CONTINUOUS
 10
611.800000
 20
24.800000
 40
6.400000
 41
1.000000
  1
5
  7
KANJI
 50
0.000000
 51
0.000000
  0
LINE
  8
1
 62
7
  6
CONTINUOUS
 10
680.000000
 20
34.000000
 11
680.000000
 21
28.000000
  0
TEXT
  8
1
 62
7
  6
CONTINUOUS
 10
741.800000
 20
24.800000
 40
6.400000
 41
1.000000
  1
6
  7
KANJI
 50
0.000000
 51
0.000000
  0
TEXT
  8
1
 62
7
  6
CONTINUOUS
 10
690.240000
 20
95.200000
 40
5.600000
 41
0.600000
  1
PRODUCT
  7
KANJI
 50
0.000000
 51
0.000000
  0
TEXT
  8
1
 62
7
  6
CONTINUOUS
 10
692.400000
 20
70.800000
 40
6.400000
 41
0.600000
  1
TITLE
  7
KANJI
 50
0.000000
 51
0.000000
  0
TEXT
  8
1
 62
7
  6
CONTINUOUS
 10
643.520000
 20
51.200000
 40
5.600000
 41
0.752539
  1
Product No.
  7
KANJI
 50
0.000000
 51
0.000000
  0
LINE
  8
1
 62
7
  6
DASHDOT
 10
644.000000
 20
69.000000
 11
660.000000
 21
69.000000
  0
CIRCLE
  8
1
 62
7
  6
CONTINUOUS
 10
652.000000
 20
69.000000
 40
4.000000
  0
CIRCLE
  8
1
 62
7
  6
CONTINUOUS
 10
652.000000
 20
69.000000
 40
6.000000
  0
LINE
  8
1
 62
7
  6
DASHDOT
 10
652.000000
 20
61.000000
 11
652.000000
 21
77.000000
  0
TEXT
  8
1
 62
7
  6
CONTINUOUS
 10
636.000000
 20
79.200000
 40
4.800000
 41
0.600000
  1
PROJECTION
  7
KANJI
 50
0.000000
 51
0.000000
  0
LINE
  8
1
 62
7
  6
CONTINUOUS
 10
668.000000
 20
65.000000
 11
668.000000
 21
73.000000
  0
LINE
  8
1
 62
7
  6
CONTINUOUS
 10
668.000000
 20
73.000000
 11
678.000000
 21
75.000000
  0
LINE
  8
1
 62
7
  6
DASHDOT
 10
666.000000
 20
69.000000
 11
680.000000
 21
69.000000
  0
LINE
  8
1
 62
7
  6
CONTINUOUS
 10
678.000000
 20
63.000000
 11
678.000000
 21
75.000000
  0
LINE
  8
1
 62
7
  6
CONTINUOUS
 10
668.000000
 20
65.000000
 11
678.000000
 21
63.000000
  0
TEXT
  8
1
 62
7
  6
CONTINUOUS
 10
636.000000
 20
99.200000
 40
4.800000
 41
0.600000
  1
QUANTITY
  7
KANJI
 50
0.000000
 51
0.000000
  0
LINE
  8
1
 62
7
  6
CONTINUOUS
 10
714.000000
 20
58.000000
 11
714.000000
 21
106.000000
  0
TEXT
  8
1
 62
7
  6
CONTINUOUS
 10
711.520000
 20
51.200000
 40
5.600000
 41
0.752539
  1
Drawing No.
  7
KANJI
 50
0.000000
 51
0.000000
  0
LINE
  8
1
 62
7
  6
CONTINUOUS
 10
790.000000
 20
34.000000
 11
790.000000
 21
58.000000
  0
TEXT
  8
1
 62
7
  6
CONTINUOUS
 10
811.800000
 20
75.300000
 40
6.400000
 41
1.000000
  1
F
  7
KANJI
 50
0.000000
 51
0.000000
  0
TEXT
  8
1
 62
7
  6
CONTINUOUS
 10
793.280000
 20
51.200000
 40
5.600000
 41
0.823046
  1
Rev.
  7
KANJI
 50
0.000000
 51
0.000000
  0
LINE
  8
1
 62
7
  6
CONTINUOUS
 10
810.000000
 20
123.000000
 11
816.000000
 21
123.000000
  0
TEXT
  8
1
 62
7
  6
CONTINUOUS
 10
811.800000
 20
164.300000
 40
6.400000
 41
1.000000
  1
E
  7
KANJI
 50
0.000000
 51
0.000000
  0
LINE
  8
1
 62
7
  6
CONTINUOUS
 10
810.000000
 20
212.000000
 11
816.000000
 21
212.000000
  0
TEXT
  8
1
 62
7
  6
CONTINUOUS
 10
481.800000
 20
570.800000
 40
6.400000
 41
1.000000
  1
4
  7
KANJI
 50
0.000000
 51
0.000000
  0
LINE
  8
1
 62
7
  6
CONTINUOUS
 10
550.000000
 20
568.000000
 11
550.000000
 21
574.000000
  0
TEXT
  8
1
 62
7
  6
CONTINUOUS
 10
611.800000
 20
570.800000
 40
6.400000
 41
1.000000
  1
5
  7
KANJI
 50
0.000000
 51
0.000000
  0
LINE
  8
1
 62
7
  6
CONTINUOUS
 10
680.000000
 20
568.000000
 11
680.000000
 21
574.000000
  0
TEXT
  8
1
 62
7
  6
CONTINUOUS
 10
741.800000
 20
570.800000
 40
6.400000
 41
1.000000
  1
6
  7
KANJI
 50
0.000000
 51
0.000000
  0
TEXT
  8
1
 62
7
  6
CONTINUOUS
 10
811.800000
 20
431.300000
 40
6.400000
 41
1.000000
  1
B
  7
KANJI
 50
0.000000
 51
0.000000
  0
TEXT
  8
1
 62
7
  6
CONTINUOUS
 10
811.800000
 20
253.300000
 40
6.400000
 41
1.000000
  1
D
  7
KANJI
 50
0.000000
 51
0.000000
  0
LINE
  8
1
 62
7
  6
CONTINUOUS
 10
804.000000
 20
301.000000
 11
816.000000
 21
301.000000
  0
TEXT
  8
1
 62
7
  6
CONTINUOUS
 10
811.800000
 20
342.300000
 40
6.400000
 41
1.000000
  1
C
  7
KANJI
 50
0.000000
 51
0.000000
  0
LINE
  8
1
 62
7
  6
CONTINUOUS
 10
810.000000
 20
390.000000
 11
816.000000
 21
390.000000
  0
LINE
  8
1
 62
7
  6
CONTINUOUS
 10
810.000000
 20
479.000000
 11
816.000000
 21
479.000000
  0
TEXT
  8
1
 62
7
  6
CONTINUOUS
 10
811.800000
 20
520.300000
 40
6.400000
 41
1.000000
  1
A
  7
KANJI
 50
0.000000
 51
0.000000
  0
LINE
  8
1
 62
7
  6
CONTINUOUS
 10
820.000000
 20
-0.065413
 11
840.000000
 21
-0.065413
  0
LINE
  8
1
 62
7
  6
CONTINUOUS
 10
840.000000
 20
-0.065413
 11
840.000000
 21
19.934587
  0
LINE
  8
1
 62
7
  6
CONTINUOUS
 10
0.000000
 20
594.000000
 11
20.000000
 21
594.000000
  0
LINE
  8
1
 62
7
  6
CONTINUOUS
 10
0.000000
 20
574.000000
 11
0.000000
 21
594.000000
  0
LINE
  8
1
 62
7
  6
CONTINUOUS
 10
820.000000
 20
594.000000
 11
840.000000
 21
594.000000
  0
LINE
  8
1
 62
7
  6
CONTINUOUS
 10
840.000000
 20
573.934587
 11
840.000000
 21
594.000000
  0
LINE
  8
1
 62
7
  6
DASHDOT
 10
295.000000
 20
280.572000
 11
295.000000
 21
260.572000
  0
LINE
  8
1
 62
7
  6
HIDDEN
 10
291.750000
 20
265.572000
 11
291.750000
 21
275.572000
  0
LINE
  8
1
 62
7
  6
HIDDEN
 10
298.250000
 20
275.572000
 11
298.250000
 21
265.572000
  0
LINE
  8
1
 62
7
  6
DASHDOT
 10
270.000000
 20
263.572000
 11
270.000000
 21
277.572000
  0
LINE
  8
1
 62
7
  6
HIDDEN
 10
267.750000
 20
265.572000
 11
267.750000
 21
275.572000
  0
LINE
  8
1
 62
7
  6
HIDDEN
 10
272.250000
 20
275.572000
 11
272.250000
 21
265.572000
  0
LINE
  8
1
 62
7
  6
DASHDOT
 10
320.000000
 20
263.572000
 11
320.000000
 21
277.572000
  0
LINE
  8
1
 62
7
  6
HIDDEN
 10
322.250000
 20
265.572000
 11
322.250000
 21
275.572000
  0
LINE
  8
1
 62
7
  6
HIDDEN
 10
317.750000
 20
275.572000
 11
317.750000
 21
265.572000
  0
LINE
  8
1
 62
7
  6
DASHDOT
 10
590.000000
 20
280.572000
 11
590.000000
 21
260.572000
  0
LINE
  8
1
 62
7
  6
HIDDEN
 10
586.750000
 20
265.572000
 11
586.750000
 21
275.572000
  0
LINE
  8
1
 62
7
  6
HIDDEN
 10
593.250000
 20
275.572000
 11
593.250000
 21
265.572000
  0
LINE
  8
1
 62
7
  6
CONTINUOUS
 10
670.000000
 20
275.072000
 11
669.500000
 21
275.572000
  0
LINE
  8
1
 62
7
  6
CONTINUOUS
 10
670.000000
 20
266.072000
 11
670.000000
 21
275.072000
  0
LINE
  8
1
 62
7
  6
CONTINUOUS
 10
669.500000
 20
265.572000
 11
670.000000
 21
266.072000
  0
LINE
  8
1
 62
7
  6
CONTINUOUS
 10
657.500000
 20
335.572000
 11
657.500000
 21
336.572000
  0
LINE
  8
1
 62
7
  6
CONTINUOUS
 10
657.000000
 20
336.572000
 11
663.000000
 21
336.572000
  0
LINE
  8
1
 62
7
  6
CONTINUOUS
 10
662.500000
 20
336.572000
 11
662.500000
 21
335.572000
  0
LINE
  8
1
 62
7
  6
CONTINUOUS
 10
657.000000
 20
340.072000
 11
657.000000
 21
336.572000
  0
LINE
  8
1
 62
7
  6
CONTINUOUS
 10
657.500000
 20
340.572000
 11
657.000000
 21
340.072000
  0
LINE
  8
1
 62
7
  6
CONTINUOUS
 10
663.000000
 20
336.572000
 11
663.000000
 21
340.072000
  0
LINE
  8
1
 62
7
  6
CONTINUOUS
 10
662.500000
 20
340.572000
 11
657.500000
 21
340.572000
  0
LINE
  8
1
 62
7
  6
CONTINUOUS
 10
663.000000
 20
340.072000
 11
662.500000
 21
340.572000
  0
LINE
  8
1
 62
7
  6
CONTINUOUS
 10
657.000000
 20
340.072000
 11
663.000000
 21
340.072000
  0
LINE
  8
1
 62
7
  6
CONTINUOUS
 10
657.500000
 20
340.572000
 11
657.500000
 21
336.572000
  0
LINE
  8
1
 62
7
  6
CONTINUOUS
 10
662.500000
 20
340.572000
 11
662.500000
 21
336.572000
  0
LINE
  8
1
 62
7
  6
CONTINUOUS
 10
650.000000
 20
335.272000
 11
650.300000
 21
335.572000
  0
LINE
  8
1
 62
7
  6
CONTINUOUS
 10
670.000000
 20
335.272000
 11
669.700000
 21
335.572000
  0
LINE
  8
1
 62
7
  6
CONTINUOUS
 10
650.300000
 20
335.572000
 11
669.700000
 21
335.572000
  0
LINE
  8
1
 62
7
  6
CONTINUOUS
 10
650.000000
 20
335.272000
 11
670.000000
 21
335.272000
  0
LINE
  8
1
 62
7
  6
CONTINUOUS
 10
650.000000
 20
276.572000
 11
650.000000
 21
335.272000
  0
LINE
  8
1
 62
7
  6
CONTINUOUS
 10
651.000000
 20
275.572000
 11
650.000000
 21
276.572000
  0
LINE
  8
1
 62
7
  6
CONTINUOUS
 10
670.000000
 20
335.272000
 11
670.000000
 21
276.572000
  0
LINE
  8
1
 62
7
  6
CONTINUOUS
 10
670.000000
 20
276.572000
 11
669.000000
 21
275.572000
  0
LINE
  8
1
 62
7
  6
CONTINUOUS
 10
650.000000
 20
276.572000
 11
670.000000
 21
276.572000
  0
LINE
  8
1
 62
7
  6
DASHDOT
 10
660.000000
 20
262.572000
 11
660.000000
 21
343.572000
  0
LINE
  8
1
 62
7
  6
HIDDEN
 10
654.500000
 20
265.572000
 11
654.500000
 21
272.072000
  0
LINE
  8
1
 62
7
  6
HIDDEN
 10
656.750000
 20
275.572000
 11
656.750000
 21
272.072000
  0
LINE
  8
1
 62
7
  6
HIDDEN
 10
665.500000
 20
272.072000
 11
665.500000
 21
265.572000
  0
LINE
  8
1
 62
7
  6
HIDDEN
 10
663.250000
 20
272.072000
 11
663.250000
 21
275.572000
  0
LINE
  8
1
 62
7
  6
HIDDEN
 10
654.500000
 20
272.072000
 11
665.500000
 21
272.072000
  0
LINE
  8
1
 62
7
  6
CONTINUOUS
 10
510.000000
 20
275.072000
 11
510.500000
 21
275.572000
  0
LINE
  8
1
 62
7
  6
CONTINUOUS
 10
510.000000
 20
275.072000
 11
510.000000
 21
266.072000
  0
LINE
  8
1
 62
7
  6
CONTINUOUS
 10
510.500000
 20
265.572000
 11
510.000000
 21
266.072000
  0
LINE
  8
1
 62
7
  6
CONTINUOUS
 10
522.500000
 20
335.572000
 11
522.500000
 21
336.572000
  0
LINE
  8
1
 62
7
  6
CONTINUOUS
 10
523.000000
 20
336.572000
 11
517.000000
 21
336.572000
  0
LINE
  8
1
 62
7
  6
CONTINUOUS
 10
517.500000
 20
336.572000
 11
517.500000
 21
335.572000
  0
LINE
  8
1
 62
7
  6
CONTINUOUS
 10
523.000000
 20
340.072000
 11
523.000000
 21
336.572000
  0
LINE
  8
1
 62
7
  6
CONTINUOUS
 10
522.500000
 20
340.572000
 11
523.000000
 21
340.072000
  0
LINE
  8
1
 62
7
  6
CONTINUOUS
 10
517.000000
 20
336.572000
 11
517.000000
 21
340.072000
  0
LINE
  8
1
 62
7
  6
CONTINUOUS
 10
517.500000
 20
340.572000
 11
522.500000
 21
340.572000
  0
LINE
  8
1
 62
7
  6
CONTINUOUS
 10
517.000000
 20
340.072000
 11
517.500000
 21
340.572000
  0
LINE
  8
1
 62
7
  6
CONTINUOUS
 10
523.000000
 20
340.072000
 11
517.000000
 21
340.072000
  0
LINE
  8
1
 62
7
  6
CONTINUOUS
 10
522.500000
 20
340.572000
 11
522.500000
 21
336.572000
  0
LINE
  8
1
 62
7
  6
CONTINUOUS
 10
517.500000
 20
340.572000
 11
517.500000
 21
336.572000
  0
LINE
  8
1
 62
7
  6
CONTINUOUS
 10
530.000000
 20
335.272000
 11
529.700000
 21
335.572000
  0
LINE
  8
1
 62
7
  6
CONTINUOUS
 10
510.000000
 20
335.272000
 11
510.300000
 21
335.572000
  0
LINE
  8
1
 62
7
  6
CONTINUOUS
 10
529.700000
 20
335.572000
 11
510.300000
 21
335.572000
  0
LINE
  8
1
 62
7
  6
CONTINUOUS
 10
530.000000
 20
335.272000
 11
510.000000
 21
335.272000
  0
LINE
  8
1
 62
7
  6
CONTINUOUS
 10
530.000000
 20
276.572000
 11
530.000000
 21
335.272000
  0
LINE
  8
1
 62
7
  6
CONTINUOUS
 10
529.000000
 20
275.572000
 11
530.000000
 21
276.572000
  0
LINE
  8
1
 62
7
  6
CONTINUOUS
 10
510.000000
 20
335.272000
 11
510.000000
 21
276.572000
  0
LINE
  8
1
 62
7
  6
CONTINUOUS
 10
510.000000
 20
276.572000
 11
511.000000
 21
275.572000
  0
LINE
  8
1
 62
7
  6
CONTINUOUS
 10
530.000000
 20
276.572000
 11
510.000000
 21
276.572000
  0
LINE
  8
1
 62
7
  6
HIDDEN
 10
525.500000
 20
265.572000
 11
525.500000
 21
272.072000
  0
LINE
  8
1
 62
7
  6
HIDDEN
 10
523.250000
 20
275.572000
 11
523.250000
 21
272.072000
  0
LINE
  8
1
 62
7
  6
HIDDEN
 10
514.500000
 20
272.072000
 11
514.500000
 21
265.572000
  0
LINE
  8
1
 62
7
  6
HIDDEN
 10
516.750000
 20
272.072000
 11
516.750000
 21
275.572000
  0
LINE
  8
1
 62
7
  6
HIDDEN
 10
525.500000
 20
272.072000
 11
514.500000
 21
272.072000
  0
LINE
  8
1
 62
7
  6
DASHDOT
 10
520.000000
 20
262.572000
 11
520.000000
 21
343.572000
  0
LINE
  8
1
 62
7
  6
CONTINUOUS
 10
669.500000
 20
275.572000
 11
510.500000
 21
275.572000
  0
LINE
  8
1
 62
7
  6
CONTINUOUS
 10
510.500000
 20
265.572000
 11
669.500000
 21
265.572000
  0
LINE
  8
1
 62
7
  6
CONTINUOUS
 10
405.000000
 20
275.072000
 11
404.500000
 21
275.572000
  0
LINE
  8
1
 62
7
  6
CONTINUOUS
 10
405.000000
 20
266.072000
 11
405.000000
 21
275.072000
  0
LINE
  8
1
 62
7
  6
CONTINUOUS
 10
404.500000
 20
265.572000
 11
405.000000
 21
266.072000
  0
LINE
  8
1
 62
7
  6
CONTINUOUS
 10
392.500000
 20
335.572000
 11
392.500000
 21
336.572000
  0
LINE
  8
1
 62
7
  6
CONTINUOUS
 10
392.000000
 20
336.572000
 11
398.000000
 21
336.572000
  0
LINE
  8
1
 62
7
  6
CONTINUOUS
 10
397.500000
 20
336.572000
 11
397.500000
 21
335.572000
  0
LINE
  8
1
 62
7
  6
CONTINUOUS
 10
392.000000
 20
340.072000
 11
392.000000
 21
336.572000
  0
LINE
  8
1
 62
7
  6
CONTINUOUS
 10
392.500000
 20
340.572000
 11
392.000000
 21
340.072000
  0
LINE
  8
1
 62
7
  6
CONTINUOUS
 10
398.000000
 20
336.572000
 11
398.000000
 21
340.072000
  0
LINE
  8
1
 62
7
  6
CONTINUOUS
 10
397.500000
 20
340.572000
 11
392.500000
 21
340.572000
  0
LINE
  8
1
 62
7
  6
CONTINUOUS
 10
398.000000
 20
340.072000
 11
397.500000
 21
340.572000
  0
LINE
  8
1
 62
7
  6
CONTINUOUS
 10
392.000000
 20
340.072000
 11
398.000000
 21
340.072000
  0
LINE
  8
1
 62
7
  6
CONTINUOUS
 10
392.500000
 20
340.572000
 11
392.500000
 21
336.572000
  0
LINE
  8
1
 62
7
  6
CONTINUOUS
 10
397.500000
 20
340.572000
 11
397.500000
 21
336.572000
  0
LINE
  8
1
 62
7
  6
CONTINUOUS
 10
385.000000
 20
335.272000
 11
385.300000
 21
335.572000
  0
LINE
  8
1
 62
7
  6
CONTINUOUS
 10
405.000000
 20
335.272000
 11
404.700000
 21
335.572000
  0
LINE
  8
1
 62
7
  6
CONTINUOUS
 10
385.300000
 20
335.572000
 11
404.700000
 21
335.572000
  0
LINE
  8
1
 62
7
  6
CONTINUOUS
 10
385.000000
 20
335.272000
 11
405.000000
 21
335.272000
  0
LINE
  8
1
 62
7
  6
CONTINUOUS
 10
385.000000
 20
276.572000
 11
385.000000
 21
335.272000
  0
LINE
  8
1
 62
7
  6
CONTINUOUS
 10
386.000000
 20
275.572000
 11
385.000000
 21
276.572000
  0
LINE
  8
1
 62
7
  6
CONTINUOUS
 10
405.000000
 20
335.272000
 11
405.000000
 21
276.572000
  0
LINE
  8
1
 62
7
  6
CONTINUOUS
 10
405.000000
 20
276.572000
 11
404.000000
 21
275.572000
  0
LINE
  8
1
 62
7
  6
CONTINUOUS
 10
385.000000
 20
276.572000
 11
405.000000
 21
276.572000
  0
LINE
  8
1
 62
7
  6
DASHDOT
 10
395.000000
 20
262.572000
 11
395.000000
 21
343.572000
  0
LINE
  8
1
 62
7
  6
HIDDEN
 10
389.500000
 20
265.572000
 11
389.500000
 21
272.072000
  0
LINE
  8
1
 62
7
  6
HIDDEN
 10
391.750000
 20
275.572000
 11
391.750000
 21
272.072000
  0
LINE
  8
1
 62
7
  6
HIDDEN
 10
400.500000
 20
272.072000
 11
400.500000
 21
265.572000
  0
LINE
  8
1
 62
7
  6
HIDDEN
 10
398.250000
 20
272.072000
 11
398.250000
 21
275.572000
  0
LINE
  8
1
 62
7
  6
HIDDEN
 10
389.500000
 20
272.072000
 11
400.500000
 21
272.072000
  0
LINE
  8
1
 62
7
  6
CONTINUOUS
 10
185.000000
 20
275.072000
 11
185.500000
 21
275.572000
  0
LINE
  8
1
 62
7
  6
CONTINUOUS
 10
185.000000
 20
275.072000
 11
185.000000
 21
266.072000
  0
LINE
  8
1
 62
7
  6
CONTINUOUS
 10
185.500000
 20
265.572000
 11
185.000000
 21
266.072000
  0
LINE
  8
1
 62
7
  6
CONTINUOUS
 10
197.500000
 20
335.572000
 11
197.500000
 21
336.572000
  0
LINE
  8
1
 62
7
  6
CONTINUOUS
 10
198.000000
 20
336.572000
 11
192.000000
 21
336.572000
  0
LINE
  8
1
 62
7
  6
CONTINUOUS
 10
192.500000
 20
336.572000
 11
192.500000
 21
335.572000
  0
LINE
  8
1
 62
7
  6
CONTINUOUS
 10
198.000000
 20
340.072000
 11
198.000000
 21
336.572000
  0
LINE
  8
1
 62
7
  6
CONTINUOUS
 10
197.500000
 20
340.572000
 11
198.000000
 21
340.072000
  0
LINE
  8
1
 62
7
  6
CONTINUOUS
 10
192.000000
 20
336.572000
 11
192.000000
 21
340.072000
  0
LINE
  8
1
 62
7
  6
CONTINUOUS
 10
192.500000
 20
340.572000
 11
197.500000
 21
340.572000
  0
LINE
  8
1
 62
7
  6
CONTINUOUS
 10
192.000000
 20
340.072000
 11
192.500000
 21
340.572000
  0
LINE
  8
1
 62
7
  6
CONTINUOUS
 10
198.000000
 20
340.072000
 11
192.000000
 21
340.072000
  0
LINE
  8
1
 62
7
  6
CONTINUOUS
 10
197.500000
 20
340.572000
 11
197.500000
 21
336.572000
  0
LINE
  8
1
 62
7
  6
CONTINUOUS
 10
192.500000
 20
340.572000
 11
192.500000
 21
336.572000
  0
LINE
  8
1
 62
7
  6
CONTINUOUS
 10
205.000000
 20
335.272000
 11
204.700000
 21
335.572000
  0
LINE
  8
1
 62
7
  6
CONTINUOUS
 10
185.000000
 20
335.272000
 11
185.300000
 21
335.572000
  0
LINE
  8
1
 62
7
  6
CONTINUOUS
 10
204.700000
 20
335.572000
 11
185.300000
 21
335.572000
  0
LINE
  8
1
 62
7
  6
CONTINUOUS
 10
205.000000
 20
335.272000
 11
185.000000
 21
335.272000
  0
LINE
  8
1
 62
7
  6
CONTINUOUS
 10
205.000000
 20
276.572000
 11
205.000000
 21
335.272000
  0
LINE
  8
1
 62
7
  6
CONTINUOUS
 10
204.000000
 20
275.572000
 11
205.000000
 21
276.572000
  0
LINE
  8
1
 62
7
  6
CONTINUOUS
 10
185.000000
 20
335.272000
 11
185.000000
 21
276.572000
  0
LINE
  8
1
 62
7
  6
CONTINUOUS
 10
185.000000
 20
276.572000
 11
186.000000
 21
275.572000
  0
LINE
  8
1
 62
7
  6
CONTINUOUS
 10
205.000000
 20
276.572000
 11
185.000000
 21
276.572000
  0
LINE
  8
1
 62
7
  6
HIDDEN
 10
200.500000
 20
265.572000
 11
200.500000
 21
272.072000
  0
LINE
  8
1
 62
7
  6
HIDDEN
 10
198.250000
 20
275.572000
 11
198.250000
 21
272.072000
  0
LINE
  8
1
 62
7
  6
HIDDEN
 10
189.500000
 20
272.072000
 11
189.500000
 21
265.572000
  0
LINE
  8
1
 62
7
  6
HIDDEN
 10
191.750000
 20
272.072000
 11
191.750000
 21
275.572000
  0
LINE
  8
1
 62
7
  6
HIDDEN
 10
200.500000
 20
272.072000
 11
189.500000
 21
272.072000
  0
LINE
  8
1
 62
7
  6
DASHDOT
 10
195.000000
 20
262.572000
 11
195.000000
 21
343.572000
  0
LINE
  8
1
 62
7
  6
CONTINUOUS
 10
404.500000
 20
275.572000
 11
185.500000
 21
275.572000
  0
LINE
  8
1
 62
7
  6
CONTINUOUS
 10
185.500000
 20
265.572000
 11
404.500000
 21
265.572000
  0
CIRCLE
  8
1
 62
7
  6
CONTINUOUS
 10
270.000000
 20
485.572000
 40
2.250000
  0
LINE
  8
1
 62
7
  6
DASHDOT
 10
265.750000
 20
485.572000
 11
274.250000
 21
485.572000
  0
LINE
  8
1
 62
7
  6
DASHDOT
 10
270.000000
 20
481.322000
 11
270.000000
 21
489.822000
  0
CIRCLE
  8
1
 62
7
  6
CONTINUOUS
 10
270.000000
 20
435.572000
 40
2.250000
  0
LINE
  8
1
 62
7
  6
DASHDOT
 10
270.000000
 20
431.322000
 11
270.000000
 21
439.822000
  0
LINE
  8
1
 62
7
  6
DASHDOT
 10
274.250000
 20
435.572000
 11
265.750000
 21
435.572000
  0
CIRCLE
  8
1
 62
7
  6
CONTINUOUS
 10
320.000000
 20
435.572000
 40
2.250000
  0
LINE
  8
1
 62
7
  6
DASHDOT
 10
324.250000
 20
435.572000
 11
315.750000
 21
435.572000
  0
LINE
  8
1
 62
7
  6
DASHDOT
 10
320.000000
 20
439.822000
 11
320.000000
 21
431.322000
  0
CIRCLE
  8
1
 62
7
  6
CONTINUOUS
 10
320.000000
 20
485.572000
 40
2.250000
  0
LINE
  8
1
 62
7
  6
DASHDOT
 10
320.000000
 20
489.822000
 11
320.000000
 21
481.322000
  0
LINE
  8
1
 62
7
  6
DASHDOT
 10
315.750000
 20
485.572000
 11
324.250000
 21
485.572000
  0
CIRCLE
  8
1
 62
7
  6
CONTINUOUS
 10
295.000000
 20
530.572000
 40
3.250000
  0
LINE
  8
1
 62
7
  6
DASHDOT
 10
289.750000
 20
530.572000
 11
300.250000
 21
530.572000
  0
CIRCLE
  8
1
 62
7
  6
CONTINUOUS
 10
295.000000
 20
390.572000
 40
3.250000
  0
LINE
  8
1
 62
7
  6
DASHDOT
 10
289.750000
 20
390.572000
 11
300.250000
 21
390.572000
  0
LINE
  8
1
 62
7
  6
DASHDOT
 10
295.000000
 20
545.572000
 11
295.000000
 21
375.572000
  0
CIRCLE
  8
1
 62
7
  6
CONTINUOUS
 10
395.000000
 20
460.572000
 40
3.250000
  0
LINE
  8
1
 62
7
  6
DASHDOT
 10
395.000000
 20
455.322000
 11
395.000000
 21
465.822000
  0
CIRCLE
  8
1
 62
7
  6
CONTINUOUS
 10
395.000000
 20
530.572000
 40
10.000000
  0
LINE
  8
1
 62
7
  6
DASHDOT
 10
407.000000
 20
530.572000
 11
383.000000
 21
530.572000
  0
LINE
  8
1
 62
7
  6
DASHDOT
 10
395.000000
 20
518.572000
 11
395.000000
 21
542.572000
  0
CIRCLE
  8
1
 62
7
  6
CONTINUOUS
 10
395.000000
 20
530.572000
 40
3.000000
  0
CIRCLE
  8
1
 62
7
  6
CONTINUOUS
 10
395.000000
 20
530.572000
 40
2.500000
  0
CIRCLE
  8
1
 62
7
  6
CONTINUOUS
 10
395.000000
 20
530.572000
 40
9.700000
  0
LINE
  8
1
 62
7
  6
CONTINUOUS
 10
405.000000
 20
539.572000
 11
404.000000
 21
540.572000
  0
CIRCLE
  8
1
 62
7
  6
CONTINUOUS
 10
395.000000
 20
390.572000
 40
10.000000
  0
LINE
  8
1
 62
7
  6
DASHDOT
 10
407.000000
 20
390.572000
 11
383.000000
 21
390.572000
  0
LINE
  8
1
 62
7
  6
DASHDOT
 10
395.000000
 20
402.572000
 11
395.000000
 21
378.572000
  0
CIRCLE
  8
1
 62
7
  6
CONTINUOUS
 10
395.000000
 20
390.572000
 40
3.000000
  0
CIRCLE
  8
1
 62
7
  6
CONTINUOUS
 10
395.000000
 20
390.572000
 40
2.500000
  0
CIRCLE
  8
1
 62
7
  6
CONTINUOUS
 10
395.000000
 20
390.572000
 40
9.700000
  0
LINE
  8
1
 62
7
  6
CONTINUOUS
 10
404.000000
 20
380.572000
 11
405.000000
 21
381.572000
  0
LINE
  8
1
 62
7
  6
CONTINUOUS
 10
405.000000
 20
381.572000
 11
405.000000
 21
539.572000
  0
CIRCLE
  8
1
 62
7
  6
CONTINUOUS
 10
195.000000
 20
460.572000
 40
3.250000
  0
LINE
  8
1
 62
7
  6
DASHDOT
 10
195.000000
 20
455.322000
 11
195.000000
 21
465.822000
  0
CIRCLE
  8
1
 62
7
  6
CONTINUOUS
 10
195.000000
 20
530.572000
 40
10.000000
  0
LINE
  8
1
 62
7
  6
DASHDOT
 10
183.000000
 20
530.572000
 11
207.000000
 21
530.572000
  0
LINE
  8
1
 62
7
  6
DASHDOT
 10
195.000000
 20
518.572000
 11
195.000000
 21
542.572000
  0
CIRCLE
  8
1
 62
7
  6
CONTINUOUS
 10
195.000000
 20
530.572000
 40
3.000000
  0
CIRCLE
  8
1
 62
7
  6
CONTINUOUS
 10
195.000000
 20
530.572000
 40
2.500000
  0
CIRCLE
  8
1
 62
7
  6
CONTINUOUS
 10
195.000000
 20
530.572000
 40
9.700000
  0
LINE
  8
1
 62
7
  6
CONTINUOUS
 10
186.000000
 20
540.572000
 11
185.000000
 21
539.572000
  0
CIRCLE
  8
1
 62
7
  6
CONTINUOUS
 10
195.000000
 20
390.572000
 40
10.000000
  0
LINE
  8
1
 62
7
  6
DASHDOT
 10
183.000000
 20
390.572000
 11
207.000000
 21
390.572000
  0
LINE
  8
1
 62
7
  6
DASHDOT
 10
195.000000
 20
402.572000
 11
195.000000
 21
378.572000
  0
CIRCLE
  8
1
 62
7
  6
CONTINUOUS
 10
195.000000
 20
390.572000
 40
3.000000
  0
CIRCLE
  8
1
 62
7
  6
CONTINUOUS
 10
195.000000
 20
390.572000
 40
2.500000
  0
CIRCLE
  8
1
 62
7
  6
CONTINUOUS
 10
195.000000
 20
390.572000
 40
9.700000
  0
LINE
  8
1
 62
7
  6
CONTINUOUS
 10
185.000000
 20
381.572000
 11
186.000000
 21
380.572000
  0
LINE
  8
1
 62
7
  6
CONTINUOUS
 10
185.000000
 20
539.572000
 11
185.000000
 21
381.572000
  0
LINE
  8
1
 62
7
  6
DASHDOT
 10
410.000000
 20
460.572000
 11
180.000000
 21
460.572000
  0
LINE
  8
1
 62
7
  6
CONTINUOUS
 10
404.000000
 20
540.572000
 11
186.000000
 21
540.572000
  0
LINE
  8
1
 62
7
  6
CONTINUOUS
 10
186.000000
 20
380.572000
 11
404.000000
 21
380.572000
  0
CIRCLE
  8
1
 62
7
  6
CONTINUOUS
 10
270.000000
 20
115.572000
 40
2.250000
  0
LINE
  8
1
 62
7
  6
DASHDOT
 10
265.750000
 20
115.572000
 11
274.250000
 21
115.572000
  0
LINE
  8
1
 62
7
  6
DASHDOT
 10
270.000000
 20
119.822000
 11
270.000000
 21
111.322000
  0
CIRCLE
  8
1
 62
7
  6
CONTINUOUS
 10
270.000000
 20
165.572000
 40
2.250000
  0
LINE
  8
1
 62
7
  6
DASHDOT
 10
270.000000
 20
169.822000
 11
270.000000
 21
161.322000
  0
LINE
  8
1
 62
7
  6
DASHDOT
 10
274.250000
 20
165.572000
 11
265.750000
 21
165.572000
  0
CIRCLE
  8
1
 62
7
  6
CONTINUOUS
 10
320.000000
 20
165.572000
 40
2.250000
  0
LINE
  8
1
 62
7
  6
DASHDOT
 10
324.250000
 20
165.572000
 11
315.750000
 21
165.572000
  0
LINE
  8
1
 62
7
  6
DASHDOT
 10
320.000000
 20
161.322000
 11
320.000000
 21
169.822000
  0
CIRCLE
  8
1
 62
7
  6
CONTINUOUS
 10
320.000000
 20
115.572000
 40
2.250000
  0
LINE
  8
1
 62
7
  6
DASHDOT
 10
320.000000
 20
111.322000
 11
320.000000
 21
119.822000
  0
LINE
  8
1
 62
7
  6
DASHDOT
 10
315.750000
 20
115.572000
 11
324.250000
 21
115.572000
  0
CIRCLE
  8
1
 62
7
  6
CONTINUOUS
 10
295.000000
 20
210.572000
 40
3.250000
  0
LINE
  8
1
 62
7
  6
DASHDOT
 10
289.750000
 20
210.572000
 11
300.250000
 21
210.572000
  0
CIRCLE
  8
1
 62
7
  6
CONTINUOUS
 10
295.000000
 20
70.572000
 40
3.250000
  0
LINE
  8
1
 62
7
  6
DASHDOT
 10
289.750000
 20
70.572000
 11
300.250000
 21
70.572000
  0
LINE
  8
1
 62
7
  6
DASHDOT
 10
295.000000
 20
55.572000
 11
295.000000
 21
225.572000
  0
CIRCLE
  8
1
 62
7
  6
CONTINUOUS
 10
395.000000
 20
140.572000
 40
3.250000
  0
LINE
  8
1
 62
7
  6
DASHDOT
 10
395.000000
 20
145.822000
 11
395.000000
 21
135.322000
  0
LINE
  8
1
 62
7
  6
DASHDOT
 10
407.000000
 20
210.572000
 11
383.000000
 21
210.572000
  0
LINE
  8
1
 62
7
  6
DASHDOT
 10
395.000000
 20
198.572000
 11
395.000000
 21
222.572000
  0
LINE
  8
1
 62
7
  6
CONTINUOUS
 10
404.000000
 20
220.572000
 11
405.000000
 21
219.572000
  0
CIRCLE
  8
1
 62
7
  6
HIDDEN
 10
395.000000
 20
210.572000
 40
10.000000
  0
CIRCLE
  8
1
 62
7
  6
CONTINUOUS
 10
395.000000
 20
210.572000
 40
5.500000
  0
CIRCLE
  8
1
 62
7
  6
CONTINUOUS
 10
395.000000
 20
210.572000
 40
5.000000
  0
LINE
  8
1
 62
7
  6
CONTINUOUS
 10
393.600000
 20
213.072000
 11
392.100000
 21
210.572000
  0
LINE
  8
1
 62
7
  6
CONTINUOUS
 10
392.100000
 20
210.572000
 11
393.600000
 21
208.072000
  0
LINE
  8
1
 62
7
  6
CONTINUOUS
 10
393.600000
 20
208.072000
 11
396.400000
 21
208.072000
  0
LINE
  8
1
 62
7
  6
CONTINUOUS
 10
396.400000
 20
208.072000
 11
397.900000
 21
210.572000
  0
LINE
  8
1
 62
7
  6
CONTINUOUS
 10
397.900000
 20
210.572000
 11
396.400000
 21
213.072000
  0
LINE
  8
1
 62
7
  6
CONTINUOUS
 10
396.400000
 20
213.072000
 11
393.600000
 21
213.072000
  0
CIRCLE
  8
1
 62
7
  6
CONTINUOUS
 10
395.000000
 20
210.572000
 40
4.300000
  0
LINE
  8
1
 62
7
  6
DASHDOT
 10
407.000000
 20
70.572000
 11
383.000000
 21
70.572000
  0
LINE
  8
1
 62
7
  6
DASHDOT
 10
395.000000
 20
82.572000
 11
395.000000
 21
58.572000
  0
LINE
  8
1
 62
7
  6
CONTINUOUS
 10
405.000000
 20
61.572000
 11
404.000000
 21
60.572000
  0
CIRCLE
  8
1
 62
7
  6
HIDDEN
 10
395.000000
 20
70.572000
 40
10.000000
  0
CIRCLE
  8
1
 62
7
  6
CONTINUOUS
 10
395.000000
 20
70.572000
 40
5.500000
  0
CIRCLE
  8
1
 62
7
  6
CONTINUOUS
 10
395.000000
 20
70.572000
 40
5.000000
  0
LINE
  8
1
 62
7
  6
CONTINUOUS
 10
393.600000
 20
73.072000
 11
392.100000
 21
70.572000
  0
LINE
  8
1
 62
7
  6
CONTINUOUS
 10
392.100000
 20
70.572000
 11
393.600000
 21
68.072000
  0
LINE
  8
1
 62
7
  6
CONTINUOUS
 10
393.600000
 20
68.072000
 11
396.400000
 21
68.072000
  0
LINE
  8
1
 62
7
  6
CONTINUOUS
 10
396.400000
 20
68.072000
 11
397.900000
 21
70.572000
  0
LINE
  8
1
 62
7
  6
CONTINUOUS
 10
397.900000
 20
70.572000
 11
396.400000
 21
73.072000
  0
LINE
  8
1
 62
7
  6
CONTINUOUS
 10
396.400000
 20
73.072000
 11
393.600000
 21
73.072000
  0
CIRCLE
  8
1
 62
7
  6
CONTINUOUS
 10
395.000000
 20
70.572000
 40
4.300000
  0
LINE
  8
1
 62
7
  6
CONTINUOUS
 10
405.000000
 20
219.572000
 11
405.000000
 21
61.572000
  0
CIRCLE
  8
1
 62
7
  6
CONTINUOUS
 10
195.000000
 20
140.572000
 40
3.250000
  0
LINE
  8
1
 62
7
  6
DASHDOT
 10
195.000000
 20
145.822000
 11
195.000000
 21
135.322000
  0
LINE
  8
1
 62
7
  6
DASHDOT
 10
183.000000
 20
210.572000
 11
207.000000
 21
210.572000
  0
LINE
  8
1
 62
7
  6
DASHDOT
 10
195.000000
 20
198.572000
 11
195.000000
 21
222.572000
  0
LINE
  8
1
 62
7
  6
CONTINUOUS
 10
185.000000
 20
219.572000
 11
186.000000
 21
220.572000
  0
CIRCLE
  8
1
 62
7
  6
HIDDEN
 10
195.000000
 20
210.572000
 40
10.000000
  0
CIRCLE
  8
1
 62
7
  6
CONTINUOUS
 10
195.000000
 20
210.572000
 40
5.500000
  0
CIRCLE
  8
1
 62
7
  6
CONTINUOUS
 10
195.000000
 20
210.572000
 40
5.000000
  0
LINE
  8
1
 62
7
  6
CONTINUOUS
 10
193.600000
 20
213.072000
 11
192.100000
 21
210.572000
  0
LINE
  8
1
 62
7
  6
CONTINUOUS
 10
192.100000
 20
210.572000
 11
193.600000
 21
208.072000
  0
LINE
  8
1
 62
7
  6
CONTINUOUS
 10
193.600000
 20
208.072000
 11
196.400000
 21
208.072000
  0
LINE
  8
1
 62
7
  6
CONTINUOUS
 10
196.400000
 20
208.072000
 11
197.900000
 21
210.572000
  0
LINE
  8
1
 62
7
  6
CONTINUOUS
 10
197.900000
 20
210.572000
 11
196.400000
 21
213.072000
  0
LINE
  8
1
 62
7
  6
CONTINUOUS
 10
196.400000
 20
213.072000
 11
193.600000
 21
213.072000
  0
CIRCLE
  8
1
 62
7
  6
CONTINUOUS
 10
195.000000
 20
210.572000
 40
4.300000
  0
LINE
  8
1
 62
7
  6
DASHDOT
 10
183.000000
 20
70.572000
 11
207.000000
 21
70.572000
  0
LINE
  8
1
 62
7
  6
DASHDOT
 10
195.000000
 20
82.572000
 11
195.000000
 21
58.572000
  0
LINE
  8
1
 62
7
  6
CONTINUOUS
 10
186.000000
 20
60.572000
 11
185.000000
 21
61.572000
  0
CIRCLE
  8
1
 62
7
  6
HIDDEN
 10
195.000000
 20
70.572000
 40
10.000000
  0
CIRCLE
  8
1
 62
7
  6
CONTINUOUS
 10
195.000000
 20
70.572000
 40
5.500000
  0
CIRCLE
  8
1
 62
7
  6
CONTINUOUS
 10
195.000000
 20
70.572000
 40
5.000000
  0
LINE
  8
1
 62
7
  6
CONTINUOUS
 10
193.600000
 20
73.072000
 11
192.100000
 21
70.572000
  0
LINE
  8
1
 62
7
  6
CONTINUOUS
 10
192.100000
 20
70.572000
 11
193.600000
 21
68.072000
  0
LINE
  8
1
 62
7
  6
CONTINUOUS
 10
193.600000
 20
68.072000
 11
196.400000
 21
68.072000
  0
LINE
  8
1
 62
7
  6
CONTINUOUS
 10
196.400000
 20
68.072000
 11
197.900000
 21
70.572000
  0
LINE
  8
1
 62
7
  6
CONTINUOUS
 10
197.900000
 20
70.572000
 11
196.400000
 21
73.072000
  0
LINE
  8
1
 62
7
  6
CONTINUOUS
 10
196.400000
 20
73.072000
 11
193.600000
 21
73.072000
  0
CIRCLE
  8
1
 62
7
  6
CONTINUOUS
 10
195.000000
 20
70.572000
 40
4.300000
  0
LINE
  8
1
 62
7
  6
CONTINUOUS
 10
185.000000
 20
61.572000
 11
185.000000
 21
219.572000
  0
LINE
  8
1
 62
7
  6
DASHDOT
 10
410.000000
 20
140.572000
 11
180.000000
 21
140.572000
  0
LINE
  8
1
 62
7
  6
CONTINUOUS
 10
186.000000
 20
220.572000
 11
404.000000
 21
220.572000
  0
LINE
  8
1
 62
7
  6
CONTINUOUS
 10
404.000000
 20
60.572000
 11
186.000000
 21
60.572000
  0
TEXT
  8
1
 62
7
  6
CONTINUOUS
 10
716.607000
 20
78.500000
 40
7.000000
 41
0.496032
  1
ラボジャッキ用高さ調整プレート
  7
KANJI
 50
0.000000
 51
0.000000
  0
TEXT
  8
1
 62
7
  6
CONTINUOUS
 10
718.000000
 20
94.500000
 40
7.000000
 41
0.571429
  1
AJP-70
  7
KANJI
 50
0.000000
 51
0.000000
  0
ENDSEC
  0
EOF
