  0
SECTION
  2
HEADER
  9
$ACADVER
  1
AC1004
  9
$INSBASE
 10
0.000000
 20
0.000000
  9
$EXTMIN
 10
0.000000
 20
0.000000
  9
$EXTMAX
 10
594.000000
 20
420.000000
  9
$LIMMIN
 10
0.000000
 20
0.000000
  9
$LIMMAX
 10
594.000000
 20
420.000000
  9
$VIEWCTR
 10
297.000000
 20
210.000000
  9
$VIEWSIZE
 40
420.000000
  9
$PEXTMIN
 10
0.000000
 20
0.000000
 30
0.000000
  9
$PEXTMAX
 10
594.000000
 20
420.000000
 30
0.000000
  9
$SNAPMODE
 70
     0
  9
$SNAPUNIT
 10
1.000000
 20
1.000000
  9
$SNAPBASE
 10
0.000000
 20
0.000000
  9
$SNAPANG
 50
0.000000
  9
$SNAPISOPAIR
 70
     0
  9
$SNAPSTYLE
 70
     0
  9
$GRIDMODE
 70
     0
  9
$GRIDUNIT
 10
0.000000
 20
0.000000
  9
$ORTHOMODE
 70
     0
  9
$REGENMODE
 70
     1
  9
$FILLMODE
 70
     1
  9
$QTEXTMODE
 70
     0
  9
$DRAGMODE
 70
     2
  9
$LTSCALE
 40
0.250000
  9
$OSMODE
 70
     0
  9
$ATTMODE
 70
     1
  9
$TEXTSIZE
 40
3.500000
  9
$TRACEWID
 40
0.050000
  9
$TEXTSTYLE
  7
STANDARD
  9
$CLAYER
  8
0
  9
$CELTYPE
  6
BYLAYER
  9
$CECOLOR
 62
   256
  9
$DIMSCALE
 40
1.000000
  9
$DIMASZ
 40
1.000000
  9
$DIMEXO
 40
0.000000
  9
$DIMDLI
 40
0.500000
  9
$DIMRND
 40
0.000000
  9
$DIMDLE
 40
0.000000
  9
$DIMEXE
 40
0.000000
  9
$DIMTP
 40
0.000000
  9
$DIMTM
 40
0.000000
  9
$DIMTXT
 40
3.500000
  9
$DIMCEN
 40
0.000000
  9
$DIMTSZ
 40
0.000000
  9
$DIMTOL
 70
     0
  9
$DIMLIM
 70
     0
  9
$DIMTIH
 70
     1
  9
$DIMTOH
 70
     1
  9
$DIMSE1
 70
     0
  9
$DIMSE2
 70
     0
  9
$DIMTAD
 70
     0
  9
$DIMZIN
 70
     0
  9
$DIMBLK
  1

  9
$DIMASO
 70
     0
  9
$DIMSHO
 70
     0
  9
$DIMPOST
  1

  9
$DIMAPOST
  1

  9
$DIMALT
 70
     0
  9
$DIMALTD
 70
     0
  9
$DIMALTF
 40
25.400000
  9
$DIMLFAC
 40
1.000000
  9
$DIMTOFL
 70
     0
  9
$DIMTVP
 40
0.000000
  9
$DIMTIX
 70
     0
  9
$DIMSOXD
 70
     0
  9
$DIMSAH
 70
     0
  9
$DIMBLKL
  1

  9
$DIMBLKR
  1

  9
$LUNITS
 70
     2
  9
$LUPREC
 70
     2
  9
$AXISMODE
 70
     0
  9
$AXISUNIT
 10
1.000000
 20
1.000000
  9
$SKETCHINC
 40
0.000000
  9
$FILLETRAD
 40
0.000000
  9
$AUNITS
 70
     1
  9
$AUPREC
 70
     2
  9
$MENU
  1
ACAD
  9
$ELEVATION
 40
0.000000
  9
$THICKNESS
 40
0.000000
  9
$VIEWDIR
 10
0.000000
 20
0.000000
 30
1.000000
  9
$LIMCHECK
 70
     1
  9
$BLIPMODE
 70
     1
  9
$CHAMFERA
 40
0.000000
  9
$CHAMFERB
 40
0.000000
  9
$FASTZOOM
 70
     1
  9
$SKPOLY
 70
     0
  9
$TDCREATE
 40
0.000000
  9
$TDUPDATE
 40
0.000000
  9
$TDINDWG
 40
0.000000
  9
$TDUSRTIMER
 40
0.000000
  9
$USRTIMER
 70
     1
  9
$ANGBASE
 50
0.000000
  9
$ANGDIR
 70
     0
  9
$PDMODE
 70
     0
  9
$PDSIZE
 40
0.000000
  9
$PLINEWID
 40
0.000000
  9
$COORDS
 70
     2
  9
$USERI1
 70
     0
  9
$USERI2
 70
     0
  9
$USERI3
 70
     0
  9
$USERI4
 70
     0
  9
$USERI5
 70
     0
  9
$USERR1
 40
0.000000
  9
$USERR2
 40
0.000000
  9
$USERR3
 40
0.000000
  9
$USERR4
 40
0.000000
  9
$USERR5
 40
0.000000
  0
ENDSEC
  0
SECTION
  2
TABLES
  0
TABLE
  2
LTYPE
 70
     5
  0
LTYPE
  2
CONTINUOUS
 70
    64
  3
Solid line
 72
    65
 73
     0
 40
0.0
  0
LTYPE
  2
HIDDEN
 70
    64
  3
------------------------
 72
    65
 73
     2
 40
12.6
 49
8.4
 49
-4.2
  0
LTYPE
  2
DOT
 70
    64
  3
････････････････････････
 72
    65
 73
     2
 40
8.0
 49
6.0
 49
-2.0
  0
LTYPE
  2
DASHDOT
 70
    64
  3
--･--･--･--･--･--･--･--
 72
    65
 73
     4
 40
50.5
 49
30.0
 49
-9.0
 49
2.5
 49
-9.0
  0
LTYPE
  2
DIVIDE
 70
    64
  3
--･･--･･--･･--･･--･･--
 72
    65
 73
     6
 40
58.0
 49
30.0
 49
-9.0
 49
2.5
 49
-5.0
 49
2.5
 49
-9.0
  0
LTYPE
  2
ACAD_ISO06W100
 70
    64
  3
____ ... ____ ... ____
 72
    65
 73
     8
 40
37.5
 49
24.0
 49
-3.0
 49
0.5
 49
-3.0
 49
0.5
 49
-3.0
 49
0.5
 49
-3.0
  0
LTYPE
  2
ACAD_ISO14W100
 70
    64
  3
__ . . . __ . . . __ . . . 
 72
    65
 73
     8
 40
25.5
 49
12.0
 49
-3.0
 49
0.5
 49
-3.0
 49
0.5
 49
-3.0
 49
0.5
 49
-3.0
  0
ENDTAB
  0
TABLE
  2
LAYER
 70
1
  0
LAYER
  2
1
 70
64
 62
7
  6
CONTINUOUS
  0
ENDTAB
  0
TABLE
  2
STYLE
 70
     2
  0
STYLE
  2
STANDARD
 70
    64
 40
0.0
 41
1.0
 50
0.0
 71
     0
 42
0.2
  3
TXT
  4

  0
STYLE
  2
KANJI
 70
    64
 40
0.0
 41
1.0
 50
0.0
 71
     0
 42
0.2
  3
TXT
  4
BIGFONT
  0
ENDTAB
  0
TABLE
  2
VIEW
 70
     0
  0
ENDTAB
  0
ENDSEC
  0
SECTION
  2
BLOCKS
  0
ENDSEC
  0
SECTION
  2
ENTITIES
  0
LINE
  8
1
 62
7
  6
CONTINUOUS
 10
295.000000
 20
188.759000
 11
294.500000
 21
189.259000
  0
LINE
  8
1
 62
7
  6
CONTINUOUS
 10
295.000000
 20
179.759000
 11
295.000000
 21
188.759000
  0
LINE
  8
1
 62
7
  6
CONTINUOUS
 10
294.500000
 20
179.259000
 11
295.000000
 21
179.759000
  0
LINE
  8
1
 62
7
  6
CONTINUOUS
 10
294.500000
 20
189.259000
 11
135.500000
 21
189.259000
  0
LINE
  8
1
 62
7
  6
CONTINUOUS
 10
135.000000
 20
188.759000
 11
135.500000
 21
189.259000
  0
LINE
  8
1
 62
7
  6
CONTINUOUS
 10
135.500000
 20
179.259000
 11
294.500000
 21
179.259000
  0
LINE
  8
1
 62
7
  6
CONTINUOUS
 10
135.000000
 20
188.759000
 11
135.000000
 21
179.759000
  0
LINE
  8
1
 62
7
  6
CONTINUOUS
 10
135.500000
 20
179.259000
 11
135.000000
 21
179.759000
  0
LINE
  8
1
 62
7
  6
DASHDOT
 10
215.000000
 20
194.259000
 11
215.000000
 21
174.259000
  0
LINE
  8
1
 62
7
  6
CONTINUOUS
 10
147.500000
 20
249.259000
 11
147.500000
 21
250.259000
  0
LINE
  8
1
 62
7
  6
CONTINUOUS
 10
148.000000
 20
250.259000
 11
142.000000
 21
250.259000
  0
LINE
  8
1
 62
7
  6
CONTINUOUS
 10
142.500000
 20
250.259000
 11
142.500000
 21
249.259000
  0
LINE
  8
1
 62
7
  6
CONTINUOUS
 10
148.000000
 20
253.759000
 11
148.000000
 21
250.259000
  0
LINE
  8
1
 62
7
  6
CONTINUOUS
 10
147.500000
 20
254.259000
 11
148.000000
 21
253.759000
  0
LINE
  8
1
 62
7
  6
CONTINUOUS
 10
142.000000
 20
250.259000
 11
142.000000
 21
253.759000
  0
LINE
  8
1
 62
7
  6
CONTINUOUS
 10
142.500000
 20
254.259000
 11
147.500000
 21
254.259000
  0
LINE
  8
1
 62
7
  6
CONTINUOUS
 10
142.000000
 20
253.759000
 11
142.500000
 21
254.259000
  0
LINE
  8
1
 62
7
  6
CONTINUOUS
 10
148.000000
 20
253.759000
 11
142.000000
 21
253.759000
  0
LINE
  8
1
 62
7
  6
CONTINUOUS
 10
147.500000
 20
254.259000
 11
147.500000
 21
250.259000
  0
LINE
  8
1
 62
7
  6
CONTINUOUS
 10
142.500000
 20
254.259000
 11
142.500000
 21
250.259000
  0
LINE
  8
1
 62
7
  6
CONTINUOUS
 10
155.000000
 20
248.959000
 11
154.700000
 21
249.259000
  0
LINE
  8
1
 62
7
  6
CONTINUOUS
 10
135.000000
 20
248.959000
 11
135.300000
 21
249.259000
  0
LINE
  8
1
 62
7
  6
CONTINUOUS
 10
154.700000
 20
249.259000
 11
135.300000
 21
249.259000
  0
LINE
  8
1
 62
7
  6
CONTINUOUS
 10
155.000000
 20
248.959000
 11
135.000000
 21
248.959000
  0
LINE
  8
1
 62
7
  6
CONTINUOUS
 10
155.000000
 20
190.259000
 11
155.000000
 21
248.959000
  0
LINE
  8
1
 62
7
  6
CONTINUOUS
 10
154.000000
 20
189.259000
 11
155.000000
 21
190.259000
  0
LINE
  8
1
 62
7
  6
CONTINUOUS
 10
135.000000
 20
248.959000
 11
135.000000
 21
190.259000
  0
LINE
  8
1
 62
7
  6
CONTINUOUS
 10
135.000000
 20
190.259000
 11
136.000000
 21
189.259000
  0
LINE
  8
1
 62
7
  6
CONTINUOUS
 10
155.000000
 20
190.259000
 11
135.000000
 21
190.259000
  0
LINE
  8
1
 62
7
  6
HIDDEN
 10
150.500000
 20
179.259000
 11
150.500000
 21
185.759000
  0
LINE
  8
1
 62
7
  6
HIDDEN
 10
148.250000
 20
189.259000
 11
148.250000
 21
185.759000
  0
LINE
  8
1
 62
7
  6
HIDDEN
 10
139.500000
 20
185.759000
 11
139.500000
 21
179.259000
  0
LINE
  8
1
 62
7
  6
HIDDEN
 10
141.750000
 20
185.759000
 11
141.750000
 21
189.259000
  0
LINE
  8
1
 62
7
  6
HIDDEN
 10
150.500000
 20
185.759000
 11
139.500000
 21
185.759000
  0
LINE
  8
1
 62
7
  6
DASHDOT
 10
145.000000
 20
176.259000
 11
145.000000
 21
257.259000
  0
LINE
  8
1
 62
7
  6
CONTINUOUS
 10
282.500000
 20
249.259000
 11
282.500000
 21
250.259000
  0
LINE
  8
1
 62
7
  6
CONTINUOUS
 10
282.000000
 20
250.259000
 11
288.000000
 21
250.259000
  0
LINE
  8
1
 62
7
  6
CONTINUOUS
 10
287.500000
 20
250.259000
 11
287.500000
 21
249.259000
  0
LINE
  8
1
 62
7
  6
CONTINUOUS
 10
282.000000
 20
253.759000
 11
282.000000
 21
250.259000
  0
LINE
  8
1
 62
7
  6
CONTINUOUS
 10
282.500000
 20
254.259000
 11
282.000000
 21
253.759000
  0
LINE
  8
1
 62
7
  6
CONTINUOUS
 10
288.000000
 20
250.259000
 11
288.000000
 21
253.759000
  0
LINE
  8
1
 62
7
  6
CONTINUOUS
 10
287.500000
 20
254.259000
 11
282.500000
 21
254.259000
  0
LINE
  8
1
 62
7
  6
CONTINUOUS
 10
288.000000
 20
253.759000
 11
287.500000
 21
254.259000
  0
LINE
  8
1
 62
7
  6
CONTINUOUS
 10
282.000000
 20
253.759000
 11
288.000000
 21
253.759000
  0
LINE
  8
1
 62
7
  6
CONTINUOUS
 10
282.500000
 20
254.259000
 11
282.500000
 21
250.259000
  0
LINE
  8
1
 62
7
  6
CONTINUOUS
 10
287.500000
 20
254.259000
 11
287.500000
 21
250.259000
  0
LINE
  8
1
 62
7
  6
CONTINUOUS
 10
275.000000
 20
248.959000
 11
275.300000
 21
249.259000
  0
LINE
  8
1
 62
7
  6
CONTINUOUS
 10
295.000000
 20
248.959000
 11
294.700000
 21
249.259000
  0
LINE
  8
1
 62
7
  6
CONTINUOUS
 10
275.300000
 20
249.259000
 11
294.700000
 21
249.259000
  0
LINE
  8
1
 62
7
  6
CONTINUOUS
 10
275.000000
 20
248.959000
 11
295.000000
 21
248.959000
  0
LINE
  8
1
 62
7
  6
CONTINUOUS
 10
275.000000
 20
190.259000
 11
275.000000
 21
248.959000
  0
LINE
  8
1
 62
7
  6
CONTINUOUS
 10
276.000000
 20
189.259000
 11
275.000000
 21
190.259000
  0
LINE
  8
1
 62
7
  6
CONTINUOUS
 10
295.000000
 20
248.959000
 11
295.000000
 21
190.259000
  0
LINE
  8
1
 62
7
  6
CONTINUOUS
 10
295.000000
 20
190.259000
 11
294.000000
 21
189.259000
  0
LINE
  8
1
 62
7
  6
CONTINUOUS
 10
275.000000
 20
190.259000
 11
295.000000
 21
190.259000
  0
LINE
  8
1
 62
7
  6
DASHDOT
 10
285.000000
 20
176.259000
 11
285.000000
 21
257.259000
  0
LINE
  8
1
 62
7
  6
HIDDEN
 10
279.500000
 20
179.259000
 11
279.500000
 21
185.759000
  0
LINE
  8
1
 62
7
  6
HIDDEN
 10
281.750000
 20
189.259000
 11
281.750000
 21
185.759000
  0
LINE
  8
1
 62
7
  6
HIDDEN
 10
290.500000
 20
185.759000
 11
290.500000
 21
179.259000
  0
LINE
  8
1
 62
7
  6
HIDDEN
 10
288.250000
 20
185.759000
 11
288.250000
 21
189.259000
  0
LINE
  8
1
 62
7
  6
HIDDEN
 10
279.500000
 20
185.759000
 11
290.500000
 21
185.759000
  0
LINE
  8
1
 62
7
  6
DASHDOT
 10
300.000000
 20
334.259000
 11
130.000000
 21
334.259000
  0
LINE
  8
1
 62
7
  6
DASHDOT
 10
215.000000
 20
379.259000
 11
215.000000
 21
289.259000
  0
CIRCLE
  8
1
 62
7
  6
CONTINUOUS
 10
145.000000
 20
364.259000
 40
10.000000
  0
LINE
  8
1
 62
7
  6
DASHDOT
 10
133.000000
 20
364.259000
 11
157.000000
 21
364.259000
  0
LINE
  8
1
 62
7
  6
DASHDOT
 10
145.000000
 20
352.259000
 11
145.000000
 21
376.259000
  0
CIRCLE
  8
1
 62
7
  6
CONTINUOUS
 10
145.000000
 20
364.259000
 40
3.000000
  0
CIRCLE
  8
1
 62
7
  6
CONTINUOUS
 10
145.000000
 20
364.259000
 40
2.500000
  0
CIRCLE
  8
1
 62
7
  6
CONTINUOUS
 10
145.000000
 20
364.259000
 40
9.700000
  0
CIRCLE
  8
1
 62
7
  6
CONTINUOUS
 10
285.000000
 20
364.259000
 40
10.000000
  0
LINE
  8
1
 62
7
  6
DASHDOT
 10
297.000000
 20
364.259000
 11
273.000000
 21
364.259000
  0
LINE
  8
1
 62
7
  6
DASHDOT
 10
285.000000
 20
352.259000
 11
285.000000
 21
376.259000
  0
CIRCLE
  8
1
 62
7
  6
CONTINUOUS
 10
285.000000
 20
364.259000
 40
3.000000
  0
CIRCLE
  8
1
 62
7
  6
CONTINUOUS
 10
285.000000
 20
364.259000
 40
2.500000
  0
CIRCLE
  8
1
 62
7
  6
CONTINUOUS
 10
285.000000
 20
364.259000
 40
9.700000
  0
CIRCLE
  8
1
 62
7
  6
CONTINUOUS
 10
285.000000
 20
304.259000
 40
10.000000
  0
LINE
  8
1
 62
7
  6
DASHDOT
 10
297.000000
 20
304.259000
 11
273.000000
 21
304.259000
  0
LINE
  8
1
 62
7
  6
DASHDOT
 10
285.000000
 20
316.259000
 11
285.000000
 21
292.259000
  0
CIRCLE
  8
1
 62
7
  6
CONTINUOUS
 10
285.000000
 20
304.259000
 40
3.000000
  0
CIRCLE
  8
1
 62
7
  6
CONTINUOUS
 10
285.000000
 20
304.259000
 40
2.500000
  0
CIRCLE
  8
1
 62
7
  6
CONTINUOUS
 10
285.000000
 20
304.259000
 40
9.700000
  0
CIRCLE
  8
1
 62
7
  6
CONTINUOUS
 10
145.000000
 20
304.259000
 40
10.000000
  0
LINE
  8
1
 62
7
  6
DASHDOT
 10
133.000000
 20
304.259000
 11
157.000000
 21
304.259000
  0
LINE
  8
1
 62
7
  6
DASHDOT
 10
145.000000
 20
316.259000
 11
145.000000
 21
292.259000
  0
CIRCLE
  8
1
 62
7
  6
CONTINUOUS
 10
145.000000
 20
304.259000
 40
3.000000
  0
CIRCLE
  8
1
 62
7
  6
CONTINUOUS
 10
145.000000
 20
304.259000
 40
2.500000
  0
CIRCLE
  8
1
 62
7
  6
CONTINUOUS
 10
145.000000
 20
304.259000
 40
9.700000
  0
CIRCLE
  8
1
 62
7
  6
CONTINUOUS
 10
190.000000
 20
359.259000
 40
2.250000
  0
LINE
  8
1
 62
7
  6
DASHDOT
 10
185.750000
 20
359.259000
 11
194.250000
 21
359.259000
  0
LINE
  8
1
 62
7
  6
DASHDOT
 10
190.000000
 20
355.009000
 11
190.000000
 21
363.509000
  0
CIRCLE
  8
1
 62
7
  6
CONTINUOUS
 10
190.000000
 20
309.259000
 40
2.250000
  0
LINE
  8
1
 62
7
  6
DASHDOT
 10
190.000000
 20
305.009000
 11
190.000000
 21
313.509000
  0
LINE
  8
1
 62
7
  6
DASHDOT
 10
194.250000
 20
309.259000
 11
185.750000
 21
309.259000
  0
CIRCLE
  8
1
 62
7
  6
CONTINUOUS
 10
240.000000
 20
309.259000
 40
2.250000
  0
LINE
  8
1
 62
7
  6
DASHDOT
 10
244.250000
 20
309.259000
 11
235.750000
 21
309.259000
  0
LINE
  8
1
 62
7
  6
DASHDOT
 10
240.000000
 20
313.509000
 11
240.000000
 21
305.009000
  0
CIRCLE
  8
1
 62
7
  6
CONTINUOUS
 10
240.000000
 20
359.259000
 40
2.250000
  0
LINE
  8
1
 62
7
  6
DASHDOT
 10
240.000000
 20
363.509000
 11
240.000000
 21
355.009000
  0
LINE
  8
1
 62
7
  6
DASHDOT
 10
235.750000
 20
359.259000
 11
244.250000
 21
359.259000
  0
CIRCLE
  8
1
 62
7
  6
CONTINUOUS
 10
215.000000
 20
364.259000
 40
3.250000
  0
LINE
  8
1
 62
7
  6
DASHDOT
 10
209.750000
 20
364.259000
 11
220.250000
 21
364.259000
  0
CIRCLE
  8
1
 62
7
  6
CONTINUOUS
 10
145.000000
 20
334.259000
 40
3.250000
  0
LINE
  8
1
 62
7
  6
DASHDOT
 10
145.000000
 20
329.009000
 11
145.000000
 21
339.509000
  0
CIRCLE
  8
1
 62
7
  6
CONTINUOUS
 10
285.000000
 20
334.259000
 40
3.250000
  0
LINE
  8
1
 62
7
  6
DASHDOT
 10
285.000000
 20
329.009000
 11
285.000000
 21
339.509000
  0
CIRCLE
  8
1
 62
7
  6
CONTINUOUS
 10
215.000000
 20
304.259000
 40
3.250000
  0
LINE
  8
1
 62
7
  6
DASHDOT
 10
209.750000
 20
304.259000
 11
220.250000
 21
304.259000
  0
LINE
  8
1
 62
7
  6
CONTINUOUS
 10
136.000000
 20
374.259000
 11
135.000000
 21
373.259000
  0
LINE
  8
1
 62
7
  6
CONTINUOUS
 10
294.000000
 20
374.259000
 11
136.000000
 21
374.259000
  0
LINE
  8
1
 62
7
  6
CONTINUOUS
 10
295.000000
 20
373.259000
 11
294.000000
 21
374.259000
  0
LINE
  8
1
 62
7
  6
CONTINUOUS
 10
295.000000
 20
295.259000
 11
295.000000
 21
373.259000
  0
LINE
  8
1
 62
7
  6
CONTINUOUS
 10
294.000000
 20
294.259000
 11
295.000000
 21
295.259000
  0
LINE
  8
1
 62
7
  6
CONTINUOUS
 10
135.000000
 20
373.259000
 11
135.000000
 21
295.259000
  0
LINE
  8
1
 62
7
  6
CONTINUOUS
 10
136.000000
 20
294.259000
 11
294.000000
 21
294.259000
  0
LINE
  8
1
 62
7
  6
CONTINUOUS
 10
135.000000
 20
295.259000
 11
136.000000
 21
294.259000
  0
LINE
  8
1
 62
7
  6
DASHDOT
 10
300.000000
 20
94.259000
 11
130.000000
 21
94.259000
  0
LINE
  8
1
 62
7
  6
DASHDOT
 10
215.000000
 20
49.259000
 11
215.000000
 21
139.259000
  0
LINE
  8
1
 62
7
  6
DASHDOT
 10
133.000000
 20
64.259000
 11
157.000000
 21
64.259000
  0
LINE
  8
1
 62
7
  6
DASHDOT
 10
145.000000
 20
76.259000
 11
145.000000
 21
52.259000
  0
LINE
  8
1
 62
7
  6
DASHDOT
 10
297.000000
 20
64.259000
 11
273.000000
 21
64.259000
  0
LINE
  8
1
 62
7
  6
DASHDOT
 10
285.000000
 20
76.259000
 11
285.000000
 21
52.259000
  0
LINE
  8
1
 62
7
  6
DASHDOT
 10
297.000000
 20
124.259000
 11
273.000000
 21
124.259000
  0
LINE
  8
1
 62
7
  6
DASHDOT
 10
285.000000
 20
112.259000
 11
285.000000
 21
136.259000
  0
LINE
  8
1
 62
7
  6
DASHDOT
 10
133.000000
 20
124.259000
 11
157.000000
 21
124.259000
  0
LINE
  8
1
 62
7
  6
DASHDOT
 10
145.000000
 20
112.259000
 11
145.000000
 21
136.259000
  0
CIRCLE
  8
1
 62
7
  6
CONTINUOUS
 10
190.000000
 20
69.259000
 40
2.250000
  0
LINE
  8
1
 62
7
  6
DASHDOT
 10
185.750000
 20
69.259000
 11
194.250000
 21
69.259000
  0
LINE
  8
1
 62
7
  6
DASHDOT
 10
190.000000
 20
73.509000
 11
190.000000
 21
65.009000
  0
CIRCLE
  8
1
 62
7
  6
CONTINUOUS
 10
190.000000
 20
119.259000
 40
2.250000
  0
LINE
  8
1
 62
7
  6
DASHDOT
 10
190.000000
 20
123.509000
 11
190.000000
 21
115.009000
  0
LINE
  8
1
 62
7
  6
DASHDOT
 10
194.250000
 20
119.259000
 11
185.750000
 21
119.259000
  0
CIRCLE
  8
1
 62
7
  6
CONTINUOUS
 10
240.000000
 20
119.259000
 40
2.250000
  0
LINE
  8
1
 62
7
  6
DASHDOT
 10
244.250000
 20
119.259000
 11
235.750000
 21
119.259000
  0
LINE
  8
1
 62
7
  6
DASHDOT
 10
240.000000
 20
115.009000
 11
240.000000
 21
123.509000
  0
CIRCLE
  8
1
 62
7
  6
CONTINUOUS
 10
240.000000
 20
69.259000
 40
2.250000
  0
LINE
  8
1
 62
7
  6
DASHDOT
 10
240.000000
 20
65.009000
 11
240.000000
 21
73.509000
  0
LINE
  8
1
 62
7
  6
DASHDOT
 10
235.750000
 20
69.259000
 11
244.250000
 21
69.259000
  0
CIRCLE
  8
1
 62
7
  6
CONTINUOUS
 10
215.000000
 20
64.259000
 40
3.250000
  0
LINE
  8
1
 62
7
  6
DASHDOT
 10
209.750000
 20
64.259000
 11
220.250000
 21
64.259000
  0
CIRCLE
  8
1
 62
7
  6
CONTINUOUS
 10
145.000000
 20
94.259000
 40
3.250000
  0
LINE
  8
1
 62
7
  6
DASHDOT
 10
145.000000
 20
99.509000
 11
145.000000
 21
89.009000
  0
CIRCLE
  8
1
 62
7
  6
CONTINUOUS
 10
285.000000
 20
94.259000
 40
3.250000
  0
LINE
  8
1
 62
7
  6
DASHDOT
 10
285.000000
 20
99.509000
 11
285.000000
 21
89.009000
  0
CIRCLE
  8
1
 62
7
  6
CONTINUOUS
 10
215.000000
 20
124.259000
 40
3.250000
  0
LINE
  8
1
 62
7
  6
DASHDOT
 10
209.750000
 20
124.259000
 11
220.250000
 21
124.259000
  0
LINE
  8
1
 62
7
  6
CONTINUOUS
 10
136.000000
 20
54.259000
 11
135.000000
 21
55.259000
  0
LINE
  8
1
 62
7
  6
CONTINUOUS
 10
294.000000
 20
54.259000
 11
136.000000
 21
54.259000
  0
LINE
  8
1
 62
7
  6
CONTINUOUS
 10
295.000000
 20
55.259000
 11
294.000000
 21
54.259000
  0
LINE
  8
1
 62
7
  6
CONTINUOUS
 10
295.000000
 20
133.259000
 11
295.000000
 21
55.259000
  0
LINE
  8
1
 62
7
  6
CONTINUOUS
 10
294.000000
 20
134.259000
 11
295.000000
 21
133.259000
  0
LINE
  8
1
 62
7
  6
CONTINUOUS
 10
135.000000
 20
55.259000
 11
135.000000
 21
133.259000
  0
LINE
  8
1
 62
7
  6
CONTINUOUS
 10
136.000000
 20
134.259000
 11
294.000000
 21
134.259000
  0
LINE
  8
1
 62
7
  6
CONTINUOUS
 10
135.000000
 20
133.259000
 11
136.000000
 21
134.259000
  0
CIRCLE
  8
1
 62
7
  6
HIDDEN
 10
145.000000
 20
124.259000
 40
10.000000
  0
CIRCLE
  8
1
 62
7
  6
HIDDEN
 10
145.000000
 20
64.259000
 40
10.000000
  0
CIRCLE
  8
1
 62
7
  6
HIDDEN
 10
285.000000
 20
64.259000
 40
10.000000
  0
CIRCLE
  8
1
 62
7
  6
HIDDEN
 10
285.000000
 20
124.259000
 40
10.000000
  0
CIRCLE
  8
1
 62
7
  6
CONTINUOUS
 10
145.000000
 20
124.259000
 40
5.500000
  0
CIRCLE
  8
1
 62
7
  6
CONTINUOUS
 10
145.000000
 20
64.259000
 40
5.500000
  0
CIRCLE
  8
1
 62
7
  6
CONTINUOUS
 10
285.000000
 20
124.259000
 40
5.500000
  0
CIRCLE
  8
1
 62
7
  6
CONTINUOUS
 10
285.000000
 20
64.259000
 40
5.500000
  0
CIRCLE
  8
1
 62
7
  6
CONTINUOUS
 10
145.000000
 20
124.259000
 40
5.000000
  0
LINE
  8
1
 62
7
  6
CONTINUOUS
 10
143.600000
 20
126.759000
 11
142.100000
 21
124.259000
  0
LINE
  8
1
 62
7
  6
CONTINUOUS
 10
142.100000
 20
124.259000
 11
143.600000
 21
121.759000
  0
LINE
  8
1
 62
7
  6
CONTINUOUS
 10
143.600000
 20
121.759000
 11
146.400000
 21
121.759000
  0
LINE
  8
1
 62
7
  6
CONTINUOUS
 10
146.400000
 20
121.759000
 11
147.900000
 21
124.259000
  0
LINE
  8
1
 62
7
  6
CONTINUOUS
 10
147.900000
 20
124.259000
 11
146.400000
 21
126.759000
  0
LINE
  8
1
 62
7
  6
CONTINUOUS
 10
146.400000
 20
126.759000
 11
143.600000
 21
126.759000
  0
CIRCLE
  8
1
 62
7
  6
CONTINUOUS
 10
145.000000
 20
124.259000
 40
4.300000
  0
CIRCLE
  8
1
 62
7
  6
CONTINUOUS
 10
145.000000
 20
64.259000
 40
5.000000
  0
LINE
  8
1
 62
7
  6
CONTINUOUS
 10
143.600000
 20
66.759000
 11
142.100000
 21
64.259000
  0
LINE
  8
1
 62
7
  6
CONTINUOUS
 10
142.100000
 20
64.259000
 11
143.600000
 21
61.759000
  0
LINE
  8
1
 62
7
  6
CONTINUOUS
 10
143.600000
 20
61.759000
 11
146.400000
 21
61.759000
  0
LINE
  8
1
 62
7
  6
CONTINUOUS
 10
146.400000
 20
61.759000
 11
147.900000
 21
64.259000
  0
LINE
  8
1
 62
7
  6
CONTINUOUS
 10
147.900000
 20
64.259000
 11
146.400000
 21
66.759000
  0
LINE
  8
1
 62
7
  6
CONTINUOUS
 10
146.400000
 20
66.759000
 11
143.600000
 21
66.759000
  0
CIRCLE
  8
1
 62
7
  6
CONTINUOUS
 10
145.000000
 20
64.259000
 40
4.300000
  0
CIRCLE
  8
1
 62
7
  6
CONTINUOUS
 10
285.000000
 20
64.259000
 40
5.000000
  0
LINE
  8
1
 62
7
  6
CONTINUOUS
 10
283.600000
 20
66.759000
 11
282.100000
 21
64.259000
  0
LINE
  8
1
 62
7
  6
CONTINUOUS
 10
282.100000
 20
64.259000
 11
283.600000
 21
61.759000
  0
LINE
  8
1
 62
7
  6
CONTINUOUS
 10
283.600000
 20
61.759000
 11
286.400000
 21
61.759000
  0
LINE
  8
1
 62
7
  6
CONTINUOUS
 10
286.400000
 20
61.759000
 11
287.900000
 21
64.259000
  0
LINE
  8
1
 62
7
  6
CONTINUOUS
 10
287.900000
 20
64.259000
 11
286.400000
 21
66.759000
  0
LINE
  8
1
 62
7
  6
CONTINUOUS
 10
286.400000
 20
66.759000
 11
283.600000
 21
66.759000
  0
CIRCLE
  8
1
 62
7
  6
CONTINUOUS
 10
285.000000
 20
64.259000
 40
4.300000
  0
CIRCLE
  8
1
 62
7
  6
CONTINUOUS
 10
285.000000
 20
124.259000
 40
5.000000
  0
LINE
  8
1
 62
7
  6
CONTINUOUS
 10
283.600000
 20
126.759000
 11
282.100000
 21
124.259000
  0
LINE
  8
1
 62
7
  6
CONTINUOUS
 10
282.100000
 20
124.259000
 11
283.600000
 21
121.759000
  0
LINE
  8
1
 62
7
  6
CONTINUOUS
 10
283.600000
 20
121.759000
 11
286.400000
 21
121.759000
  0
LINE
  8
1
 62
7
  6
CONTINUOUS
 10
286.400000
 20
121.759000
 11
287.900000
 21
124.259000
  0
LINE
  8
1
 62
7
  6
CONTINUOUS
 10
287.900000
 20
124.259000
 11
286.400000
 21
126.759000
  0
LINE
  8
1
 62
7
  6
CONTINUOUS
 10
286.400000
 20
126.759000
 11
283.600000
 21
126.759000
  0
CIRCLE
  8
1
 62
7
  6
CONTINUOUS
 10
285.000000
 20
124.259000
 40
4.300000
  0
LINE
  8
1
 62
7
  6
HIDDEN
 10
211.750000
 20
179.259000
 11
211.750000
 21
189.259000
  0
LINE
  8
1
 62
7
  6
HIDDEN
 10
218.250000
 20
189.259000
 11
218.250000
 21
179.259000
  0
LINE
  8
1
 62
7
  6
DASHDOT
 10
190.000000
 20
177.259000
 11
190.000000
 21
191.259000
  0
LINE
  8
1
 62
7
  6
HIDDEN
 10
187.750000
 20
179.259000
 11
187.750000
 21
189.259000
  0
LINE
  8
1
 62
7
  6
HIDDEN
 10
192.250000
 20
189.259000
 11
192.250000
 21
179.259000
  0
LINE
  8
1
 62
7
  6
DASHDOT
 10
240.000000
 20
177.259000
 11
240.000000
 21
191.259000
  0
LINE
  8
1
 62
7
  6
HIDDEN
 10
242.250000
 20
179.259000
 11
242.250000
 21
189.259000
  0
LINE
  8
1
 62
7
  6
HIDDEN
 10
237.750000
 20
189.259000
 11
237.750000
 21
179.259000
  0
LINE
  8
1
 62
7
  6
DASHDOT
 10
420.000000
 20
194.259000
 11
420.000000
 21
174.259000
  0
LINE
  8
1
 62
7
  6
HIDDEN
 10
416.750000
 20
179.259000
 11
416.750000
 21
189.259000
  0
LINE
  8
1
 62
7
  6
HIDDEN
 10
423.250000
 20
189.259000
 11
423.250000
 21
179.259000
  0
LINE
  8
1
 62
7
  6
CONTINUOUS
 10
380.000000
 20
188.759000
 11
380.500000
 21
189.259000
  0
LINE
  8
1
 62
7
  6
CONTINUOUS
 10
380.000000
 20
188.759000
 11
380.000000
 21
179.759000
  0
LINE
  8
1
 62
7
  6
CONTINUOUS
 10
380.500000
 20
179.259000
 11
380.000000
 21
179.759000
  0
LINE
  8
1
 62
7
  6
CONTINUOUS
 10
392.500000
 20
249.259000
 11
392.500000
 21
250.259000
  0
LINE
  8
1
 62
7
  6
CONTINUOUS
 10
393.000000
 20
250.259000
 11
387.000000
 21
250.259000
  0
LINE
  8
1
 62
7
  6
CONTINUOUS
 10
387.500000
 20
250.259000
 11
387.500000
 21
249.259000
  0
LINE
  8
1
 62
7
  6
CONTINUOUS
 10
393.000000
 20
253.759000
 11
393.000000
 21
250.259000
  0
LINE
  8
1
 62
7
  6
CONTINUOUS
 10
392.500000
 20
254.259000
 11
393.000000
 21
253.759000
  0
LINE
  8
1
 62
7
  6
CONTINUOUS
 10
387.000000
 20
250.259000
 11
387.000000
 21
253.759000
  0
LINE
  8
1
 62
7
  6
CONTINUOUS
 10
387.500000
 20
254.259000
 11
392.500000
 21
254.259000
  0
LINE
  8
1
 62
7
  6
CONTINUOUS
 10
387.000000
 20
253.759000
 11
387.500000
 21
254.259000
  0
LINE
  8
1
 62
7
  6
CONTINUOUS
 10
393.000000
 20
253.759000
 11
387.000000
 21
253.759000
  0
LINE
  8
1
 62
7
  6
CONTINUOUS
 10
392.500000
 20
254.259000
 11
392.500000
 21
250.259000
  0
LINE
  8
1
 62
7
  6
CONTINUOUS
 10
387.500000
 20
254.259000
 11
387.500000
 21
250.259000
  0
LINE
  8
1
 62
7
  6
CONTINUOUS
 10
400.000000
 20
248.959000
 11
399.700000
 21
249.259000
  0
LINE
  8
1
 62
7
  6
CONTINUOUS
 10
380.000000
 20
248.959000
 11
380.300000
 21
249.259000
  0
LINE
  8
1
 62
7
  6
CONTINUOUS
 10
399.700000
 20
249.259000
 11
380.300000
 21
249.259000
  0
LINE
  8
1
 62
7
  6
CONTINUOUS
 10
400.000000
 20
248.959000
 11
380.000000
 21
248.959000
  0
LINE
  8
1
 62
7
  6
CONTINUOUS
 10
400.000000
 20
190.259000
 11
400.000000
 21
248.959000
  0
LINE
  8
1
 62
7
  6
CONTINUOUS
 10
399.000000
 20
189.259000
 11
400.000000
 21
190.259000
  0
LINE
  8
1
 62
7
  6
CONTINUOUS
 10
380.000000
 20
248.959000
 11
380.000000
 21
190.259000
  0
LINE
  8
1
 62
7
  6
CONTINUOUS
 10
380.000000
 20
190.259000
 11
381.000000
 21
189.259000
  0
LINE
  8
1
 62
7
  6
CONTINUOUS
 10
400.000000
 20
190.259000
 11
380.000000
 21
190.259000
  0
LINE
  8
1
 62
7
  6
HIDDEN
 10
395.500000
 20
179.259000
 11
395.500000
 21
185.759000
  0
LINE
  8
1
 62
7
  6
HIDDEN
 10
393.250000
 20
189.259000
 11
393.250000
 21
185.759000
  0
LINE
  8
1
 62
7
  6
HIDDEN
 10
384.500000
 20
185.759000
 11
384.500000
 21
179.259000
  0
LINE
  8
1
 62
7
  6
HIDDEN
 10
386.750000
 20
185.759000
 11
386.750000
 21
189.259000
  0
LINE
  8
1
 62
7
  6
HIDDEN
 10
395.500000
 20
185.759000
 11
384.500000
 21
185.759000
  0
LINE
  8
1
 62
7
  6
DASHDOT
 10
390.000000
 20
176.259000
 11
390.000000
 21
257.259000
  0
LINE
  8
1
 62
7
  6
CONTINUOUS
 10
460.000000
 20
188.759000
 11
459.500000
 21
189.259000
  0
LINE
  8
1
 62
7
  6
CONTINUOUS
 10
460.000000
 20
179.759000
 11
460.000000
 21
188.759000
  0
LINE
  8
1
 62
7
  6
CONTINUOUS
 10
459.500000
 20
179.259000
 11
460.000000
 21
179.759000
  0
LINE
  8
1
 62
7
  6
CONTINUOUS
 10
447.500000
 20
249.259000
 11
447.500000
 21
250.259000
  0
LINE
  8
1
 62
7
  6
CONTINUOUS
 10
447.000000
 20
250.259000
 11
453.000000
 21
250.259000
  0
LINE
  8
1
 62
7
  6
CONTINUOUS
 10
452.500000
 20
250.259000
 11
452.500000
 21
249.259000
  0
LINE
  8
1
 62
7
  6
CONTINUOUS
 10
447.000000
 20
253.759000
 11
447.000000
 21
250.259000
  0
LINE
  8
1
 62
7
  6
CONTINUOUS
 10
447.500000
 20
254.259000
 11
447.000000
 21
253.759000
  0
LINE
  8
1
 62
7
  6
CONTINUOUS
 10
453.000000
 20
250.259000
 11
453.000000
 21
253.759000
  0
LINE
  8
1
 62
7
  6
CONTINUOUS
 10
452.500000
 20
254.259000
 11
447.500000
 21
254.259000
  0
LINE
  8
1
 62
7
  6
CONTINUOUS
 10
453.000000
 20
253.759000
 11
452.500000
 21
254.259000
  0
LINE
  8
1
 62
7
  6
CONTINUOUS
 10
447.000000
 20
253.759000
 11
453.000000
 21
253.759000
  0
LINE
  8
1
 62
7
  6
CONTINUOUS
 10
447.500000
 20
254.259000
 11
447.500000
 21
250.259000
  0
LINE
  8
1
 62
7
  6
CONTINUOUS
 10
452.500000
 20
254.259000
 11
452.500000
 21
250.259000
  0
LINE
  8
1
 62
7
  6
CONTINUOUS
 10
440.000000
 20
248.959000
 11
440.300000
 21
249.259000
  0
LINE
  8
1
 62
7
  6
CONTINUOUS
 10
460.000000
 20
248.959000
 11
459.700000
 21
249.259000
  0
LINE
  8
1
 62
7
  6
CONTINUOUS
 10
440.300000
 20
249.259000
 11
459.700000
 21
249.259000
  0
LINE
  8
1
 62
7
  6
CONTINUOUS
 10
440.000000
 20
248.959000
 11
460.000000
 21
248.959000
  0
LINE
  8
1
 62
7
  6
CONTINUOUS
 10
440.000000
 20
190.259000
 11
440.000000
 21
248.959000
  0
LINE
  8
1
 62
7
  6
CONTINUOUS
 10
441.000000
 20
189.259000
 11
440.000000
 21
190.259000
  0
LINE
  8
1
 62
7
  6
CONTINUOUS
 10
460.000000
 20
248.959000
 11
460.000000
 21
190.259000
  0
LINE
  8
1
 62
7
  6
CONTINUOUS
 10
460.000000
 20
190.259000
 11
459.000000
 21
189.259000
  0
LINE
  8
1
 62
7
  6
CONTINUOUS
 10
440.000000
 20
190.259000
 11
460.000000
 21
190.259000
  0
LINE
  8
1
 62
7
  6
DASHDOT
 10
450.000000
 20
176.259000
 11
450.000000
 21
257.259000
  0
LINE
  8
1
 62
7
  6
HIDDEN
 10
444.500000
 20
179.259000
 11
444.500000
 21
185.759000
  0
LINE
  8
1
 62
7
  6
HIDDEN
 10
446.750000
 20
189.259000
 11
446.750000
 21
185.759000
  0
LINE
  8
1
 62
7
  6
HIDDEN
 10
455.500000
 20
185.759000
 11
455.500000
 21
179.259000
  0
LINE
  8
1
 62
7
  6
HIDDEN
 10
453.250000
 20
185.759000
 11
453.250000
 21
189.259000
  0
LINE
  8
1
 62
7
  6
HIDDEN
 10
444.500000
 20
185.759000
 11
455.500000
 21
185.759000
  0
LINE
  8
1
 62
7
  6
CONTINUOUS
 10
459.500000
 20
189.259000
 11
380.500000
 21
189.259000
  0
LINE
  8
1
 62
7
  6
CONTINUOUS
 10
380.500000
 20
179.259000
 11
459.500000
 21
179.259000
  0
LINE
  8
1
 62
7
  6
CONTINUOUS
 10
448.238000
 20
74.942000
 11
572.670000
 21
74.942000
  0
LINE
  8
1
 62
7
  6
CONTINUOUS
 10
448.238000
 20
74.942000
 11
448.238000
 21
24.038000
  0
LINE
  8
1
 62
7
  6
CONTINUOUS
 10
448.238000
 20
60.802000
 11
487.830000
 21
60.802000
  0
LINE
  8
1
 62
7
  6
CONTINUOUS
 10
448.238000
 20
41.006000
 11
572.670000
 21
41.006000
  0
TEXT
  8
1
 62
7
  6
CONTINUOUS
 10
545.097000
 20
27.573000
 40
4.242000
 41
1.000000
  1
1/1
  7
KANJI
 50
0.000000
 51
0.000000
  0
TEXT
  8
1
 62
7
  6
CONTINUOUS
 10
563.479000
 20
27.573000
 40
4.242000
 41
1.000000
  1
-
  7
KANJI
 50
0.000000
 51
0.000000
  0
TEXT
  8
1
 62
7
  6
CONTINUOUS
 10
465.913000
 20
27.573000
 40
4.242000
 41
0.578703
  1
－
  7
KANJI
 50
0.000000
 51
0.000000
  0
TEXT
  8
1
 62
7
  6
CONTINUOUS
 10
468.567429
 20
62.923000
 40
4.242000
 41
0.578703
  1
－
  7
KANJI
 50
0.000000
 51
0.000000
  0
LINE
  8
1
 62
7
  6
CONTINUOUS
 10
0.000000
 20
0.000000
 11
14.140000
 21
0.000000
  0
LINE
  8
1
 62
7
  6
CONTINUOUS
 10
0.000000
 20
0.000000
 11
0.000000
 21
14.140000
  0
LINE
  8
1
 62
7
  6
CONTINUOUS
 10
21.210000
 20
401.576000
 11
572.670000
 21
401.576000
  0
LINE
  8
1
 62
7
  6
CONTINUOUS
 10
21.210000
 20
24.038000
 11
572.670000
 21
24.038000
  0
LINE
  8
1
 62
7
  6
CONTINUOUS
 10
21.210000
 20
24.038000
 11
21.210000
 21
401.576000
  0
LINE
  8
1
 62
7
  6
CONTINUOUS
 10
21.210000
 20
24.038000
 11
125.846000
 21
24.038000
  0
LINE
  8
1
 62
7
  6
CONTINUOUS
 10
21.210000
 20
24.038000
 11
21.210000
 21
85.971200
  0
TEXT
  8
1
 62
7
  6
CONTINUOUS
 10
64.902600
 20
17.533600
 40
4.524800
 41
1.000000
  1
1
  7
KANJI
 50
0.000000
 51
0.000000
  0
LINE
  8
1
 62
7
  6
CONTINUOUS
 10
113.120000
 20
24.038000
 11
113.120000
 21
19.796000
  0
TEXT
  8
1
 62
7
  6
CONTINUOUS
 10
15.412600
 20
53.237100
 40
4.524800
 41
1.000000
  1
F
  7
KANJI
 50
0.000000
 51
0.000000
  0
LINE
  8
1
 62
7
  6
CONTINUOUS
 10
21.210000
 20
86.961000
 11
16.968000
 21
86.961000
  0
TEXT
  8
1
 62
7
  6
CONTINUOUS
 10
15.412600
 20
116.160100
 40
4.524800
 41
1.000000
  1
E
  7
KANJI
 50
0.000000
 51
0.000000
  0
LINE
  8
1
 62
7
  6
CONTINUOUS
 10
21.210000
 20
149.884000
 11
16.968000
 21
149.884000
  0
TEXT
  8
1
 62
7
  6
CONTINUOUS
 10
156.812600
 20
17.533600
 40
4.524800
 41
1.000000
  1
2
  7
KANJI
 50
0.000000
 51
0.000000
  0
LINE
  8
1
 62
7
  6
CONTINUOUS
 10
205.030000
 20
24.038000
 11
205.030000
 21
19.796000
  0
TEXT
  8
1
 62
7
  6
CONTINUOUS
 10
248.722600
 20
17.533600
 40
4.524800
 41
1.000000
  1
3
  7
KANJI
 50
0.000000
 51
0.000000
  0
TEXT
  8
1
 62
7
  6
CONTINUOUS
 10
15.412600
 20
304.929100
 40
4.524800
 41
1.000000
  1
B
  7
KANJI
 50
0.000000
 51
0.000000
  0
TEXT
  8
1
 62
7
  6
CONTINUOUS
 10
15.412600
 20
179.083100
 40
4.524800
 41
1.000000
  1
D
  7
KANJI
 50
0.000000
 51
0.000000
  0
LINE
  8
1
 62
7
  6
CONTINUOUS
 10
16.968000
 20
212.807000
 11
25.452000
 21
212.807000
  0
LINE
  8
1
 62
7
  6
CONTINUOUS
 10
25.452000
 20
212.807000
 11
16.968000
 21
212.807000
  0
TEXT
  8
1
 62
7
  6
CONTINUOUS
 10
15.412600
 20
242.006100
 40
4.524800
 41
1.000000
  1
C
  7
KANJI
 50
0.000000
 51
0.000000
  0
LINE
  8
1
 62
7
  6
CONTINUOUS
 10
21.210000
 20
275.730000
 11
16.968000
 21
275.730000
  0
LINE
  8
1
 62
7
  6
CONTINUOUS
 10
21.210000
 20
338.653000
 11
16.968000
 21
338.653000
  0
TEXT
  8
1
 62
7
  6
CONTINUOUS
 10
15.412600
 20
367.852100
 40
4.524800
 41
1.000000
  1
A
  7
KANJI
 50
0.000000
 51
0.000000
  0
TEXT
  8
1
 62
7
  6
CONTINUOUS
 10
64.902600
 20
403.555600
 40
4.524800
 41
1.000000
  1
1
  7
KANJI
 50
0.000000
 51
0.000000
  0
LINE
  8
1
 62
7
  6
CONTINUOUS
 10
113.120000
 20
401.576000
 11
113.120000
 21
405.818000
  0
TEXT
  8
1
 62
7
  6
CONTINUOUS
 10
156.812600
 20
403.555600
 40
4.524800
 41
1.000000
  1
2
  7
KANJI
 50
0.000000
 51
0.000000
  0
LINE
  8
1
 62
7
  6
CONTINUOUS
 10
205.030000
 20
401.576000
 11
205.030000
 21
405.818000
  0
TEXT
  8
1
 62
7
  6
CONTINUOUS
 10
248.722600
 20
403.555600
 40
4.524800
 41
1.000000
  1
3
  7
KANJI
 50
0.000000
 51
0.000000
  0
LINE
  8
1
 62
7
  6
CONTINUOUS
 10
296.940000
 20
397.334000
 11
296.940000
 21
405.818000
  0
LINE
  8
1
 62
7
  6
CONTINUOUS
 10
572.670000
 20
24.038000
 11
572.670000
 21
401.576000
  0
TEXT
  8
1
 62
7
  6
CONTINUOUS
 10
546.708960
 20
36.198400
 40
3.959200
 41
0.600000
  1
Page
  7
KANJI
 50
0.000000
 51
0.000000
  0
LINE
  8
1
 62
7
  6
CONTINUOUS
 10
448.238000
 20
35.350000
 11
572.670000
 21
35.350000
  0
LINE
  8
1
 62
7
  6
CONTINUOUS
 10
504.798000
 20
52.318000
 11
572.670000
 21
52.318000
  0
LINE
  8
1
 62
7
  6
CONTINUOUS
 10
487.830000
 20
63.630000
 11
572.670000
 21
63.630000
  0
LINE
  8
1
 62
7
  6
CONTINUOUS
 10
544.390000
 20
24.038000
 11
544.390000
 21
41.006000
  0
LINE
  8
1
 62
7
  6
CONTINUOUS
 10
487.830000
 20
24.038000
 11
487.830000
 21
74.942000
  0
TEXT
  8
1
 62
7
  6
CONTINUOUS
 10
340.632600
 20
17.533600
 40
4.524800
 41
1.000000
  1
4
  7
KANJI
 50
0.000000
 51
0.000000
  0
LINE
  8
1
 62
7
  6
CONTINUOUS
 10
388.850000
 20
24.038000
 11
388.850000
 21
19.796000
  0
TEXT
  8
1
 62
7
  6
CONTINUOUS
 10
432.542600
 20
17.533600
 40
4.524800
 41
1.000000
  1
5
  7
KANJI
 50
0.000000
 51
0.000000
  0
LINE
  8
1
 62
7
  6
CONTINUOUS
 10
480.760000
 20
24.038000
 11
480.760000
 21
19.796000
  0
TEXT
  8
1
 62
7
  6
CONTINUOUS
 10
524.452600
 20
17.533600
 40
4.524800
 41
1.000000
  1
6
  7
KANJI
 50
0.000000
 51
0.000000
  0
TEXT
  8
1
 62
7
  6
CONTINUOUS
 10
487.999680
 20
67.306400
 40
3.959200
 41
0.600000
  1
PRODUCT
  7
KANJI
 50
0.000000
 51
0.000000
  0
TEXT
  8
1
 62
7
  6
CONTINUOUS
 10
489.526800
 20
50.055600
 40
4.524800
 41
0.600000
  1
TITLE
  7
KANJI
 50
0.000000
 51
0.000000
  0
TEXT
  8
1
 62
7
  6
CONTINUOUS
 10
454.968640
 20
36.198400
 40
3.959200
 41
0.752539
  1
Product No.
  7
KANJI
 50
0.000000
 51
0.000000
  0
LINE
  8
1
 62
7
  6
DASHDOT
 10
455.308000
 20
48.783000
 11
466.620000
 21
48.783000
  0
CIRCLE
  8
1
 62
7
  6
CONTINUOUS
 10
460.964000
 20
48.783000
 40
2.828000
  0
CIRCLE
  8
1
 62
7
  6
CONTINUOUS
 10
460.964000
 20
48.783000
 40
4.242000
  0
LINE
  8
1
 62
7
  6
DASHDOT
 10
460.964000
 20
43.127000
 11
460.964000
 21
54.439000
  0
TEXT
  8
1
 62
7
  6
CONTINUOUS
 10
449.652000
 20
55.994400
 40
3.393600
 41
0.600000
  1
PROJECTION
  7
KANJI
 50
0.000000
 51
0.000000
  0
LINE
  8
1
 62
7
  6
CONTINUOUS
 10
472.276000
 20
45.955000
 11
472.276000
 21
51.611000
  0
LINE
  8
1
 62
7
  6
CONTINUOUS
 10
472.276000
 20
51.611000
 11
479.346000
 21
53.025000
  0
LINE
  8
1
 62
7
  6
DASHDOT
 10
470.862000
 20
48.783000
 11
480.760000
 21
48.783000
  0
LINE
  8
1
 62
7
  6
CONTINUOUS
 10
479.346000
 20
44.541000
 11
479.346000
 21
53.025000
  0
LINE
  8
1
 62
7
  6
CONTINUOUS
 10
472.276000
 20
45.955000
 11
479.346000
 21
44.541000
  0
TEXT
  8
1
 62
7
  6
CONTINUOUS
 10
449.652000
 20
70.134400
 40
3.393600
 41
0.600000
  1
QUANTITY
  7
KANJI
 50
0.000000
 51
0.000000
  0
LINE
  8
1
 62
7
  6
CONTINUOUS
 10
504.798000
 20
41.006000
 11
504.798000
 21
74.942000
  0
TEXT
  8
1
 62
7
  6
CONTINUOUS
 10
503.044640
 20
36.198400
 40
3.959200
 41
0.752539
  1
Drawing No.
  7
KANJI
 50
0.000000
 51
0.000000
  0
LINE
  8
1
 62
7
  6
CONTINUOUS
 10
558.530000
 20
24.038000
 11
558.530000
 21
41.006000
  0
TEXT
  8
1
 62
7
  6
CONTINUOUS
 10
573.942600
 20
53.237100
 40
4.524800
 41
1.000000
  1
F
  7
KANJI
 50
0.000000
 51
0.000000
  0
TEXT
  8
1
 62
7
  6
CONTINUOUS
 10
560.848960
 20
36.198400
 40
3.959200
 41
0.823046
  1
Rev.
  7
KANJI
 50
0.000000
 51
0.000000
  0
LINE
  8
1
 62
7
  6
CONTINUOUS
 10
572.670000
 20
86.961000
 11
576.912000
 21
86.961000
  0
TEXT
  8
1
 62
7
  6
CONTINUOUS
 10
573.942600
 20
116.160100
 40
4.524800
 41
1.000000
  1
E
  7
KANJI
 50
0.000000
 51
0.000000
  0
LINE
  8
1
 62
7
  6
CONTINUOUS
 10
572.670000
 20
149.884000
 11
576.912000
 21
149.884000
  0
TEXT
  8
1
 62
7
  6
CONTINUOUS
 10
340.632600
 20
403.555600
 40
4.524800
 41
1.000000
  1
4
  7
KANJI
 50
0.000000
 51
0.000000
  0
LINE
  8
1
 62
7
  6
CONTINUOUS
 10
388.850000
 20
401.576000
 11
388.850000
 21
405.818000
  0
TEXT
  8
1
 62
7
  6
CONTINUOUS
 10
432.542600
 20
403.555600
 40
4.524800
 41
1.000000
  1
5
  7
KANJI
 50
0.000000
 51
0.000000
  0
LINE
  8
1
 62
7
  6
CONTINUOUS
 10
480.760000
 20
401.576000
 11
480.760000
 21
405.818000
  0
TEXT
  8
1
 62
7
  6
CONTINUOUS
 10
524.452600
 20
403.555600
 40
4.524800
 41
1.000000
  1
6
  7
KANJI
 50
0.000000
 51
0.000000
  0
TEXT
  8
1
 62
7
  6
CONTINUOUS
 10
573.942600
 20
304.929100
 40
4.524800
 41
1.000000
  1
B
  7
KANJI
 50
0.000000
 51
0.000000
  0
TEXT
  8
1
 62
7
  6
CONTINUOUS
 10
573.942600
 20
179.083100
 40
4.524800
 41
1.000000
  1
D
  7
KANJI
 50
0.000000
 51
0.000000
  0
LINE
  8
1
 62
7
  6
CONTINUOUS
 10
568.428000
 20
212.807000
 11
576.912000
 21
212.807000
  0
TEXT
  8
1
 62
7
  6
CONTINUOUS
 10
573.942600
 20
242.006100
 40
4.524800
 41
1.000000
  1
C
  7
KANJI
 50
0.000000
 51
0.000000
  0
LINE
  8
1
 62
7
  6
CONTINUOUS
 10
572.670000
 20
275.730000
 11
576.912000
 21
275.730000
  0
LINE
  8
1
 62
7
  6
CONTINUOUS
 10
572.670000
 20
338.653000
 11
576.912000
 21
338.653000
  0
TEXT
  8
1
 62
7
  6
CONTINUOUS
 10
573.942600
 20
367.852100
 40
4.524800
 41
1.000000
  1
A
  7
KANJI
 50
0.000000
 51
0.000000
  0
LINE
  8
1
 62
7
  6
CONTINUOUS
 10
579.740000
 20
-0.046247
 11
593.880000
 21
-0.046247
  0
LINE
  8
1
 62
7
  6
CONTINUOUS
 10
593.880000
 20
-0.046247
 11
593.880000
 21
14.093753
  0
LINE
  8
1
 62
7
  6
CONTINUOUS
 10
0.000000
 20
419.958000
 11
14.140000
 21
419.958000
  0
LINE
  8
1
 62
7
  6
CONTINUOUS
 10
0.000000
 20
405.818000
 11
0.000000
 21
419.958000
  0
LINE
  8
1
 62
7
  6
CONTINUOUS
 10
579.740000
 20
419.958000
 11
593.880000
 21
419.958000
  0
LINE
  8
1
 62
7
  6
CONTINUOUS
 10
593.880000
 20
405.771753
 11
593.880000
 21
419.958000
  0
TEXT
  8
1
 62
7
  6
CONTINUOUS
 10
508.414000
 20
66.786000
 40
5.000000
 41
0.600000
  1
AJP-22
  7
KANJI
 50
0.000000
 51
0.000000
  0
TEXT
  8
1
 62
7
  6
CONTINUOUS
 10
507.626000
 20
55.474000
 40
5.000000
 41
0.555556
  1
ラボジャッキ用高さ調整プレート
  7
KANJI
 50
0.000000
 51
0.000000
  0
ENDSEC
  0
EOF
